Oops, an error
Loading. Please wait.

From Yesterday Bass Tab

version 4
version 4
4,834 views 3 this week
1 commentread comment
1 2 3 4 5
x 5
add to favorites
launch autoscroll
font size
0
reset
guitar tuner
Autoscroll
slow
fast
+/-
esc
set tempo
stop
Help us to improve Ultimate-Guitar.com Take our survey!
×
Author
Difficulty
novice
30 seconds to mars - from yesterday

Standard tuning

no bass for intro/1st part of the verse

Verse

G|-------------------------------|
D|-------------------------------|
A|-------------------------------|
E|-3-0-0---0-0-3---3-0-0---0-0-3-|

Chorus

G|----------------------------------------------------------------------|
D|----------------------------------------------------------------------|
A|-------------------------------------------------------------66666666-|
E|-6666666666666666-1111111111111111-3333333333333333-00000000----------|

G|---------------------------------------------------------------------|
D|---------------------------------------------------------------------|
A|----------------------------------------------------2222222222222222-|
E|-6666666666666666-1111111111111111-0000000000000000------------------|

verse again

Chorus

G|----------------------------------------------------------------------|
D|----------------------------------------------------------------------|
A|-------------------------------------------------------------66666666-|
E|-6666666666666666-1111111111111111-3333333333333333-00000000----------|

G|---------------------------------------------------------------------|
D|---------------------------------------------------------------------|
A|---------------------------------------------------------------------|
E|-6666666666666666-1111111111111111-0000000000000000-0000000000000000-|

G|-----------------------------------|
D|-----------------------------------|
A|-----------------------------------|
E|-0000000000000000-2222222222222222-|

Bridge

G|----------------------------------------------------|
D|----------------------------------------------------|
A|----55-66--5555-66-------------55-66-5555-66--------|
E|-33----------------66-66-55-33---------------66-6-5-|

G|--------------------------------------------------------------------------------|
D|--------------------------------------------------------------------------------|
A|----55-66--5555-66-------------55-66-5555-66------------------------------------|
E|-33----------------66-66-55-33---------------0000000000000000-2222222222222222--|

chorus again

done!

enjoy!
Suggest correction
comments
print report bad tab
1 comment total.
+1 reply
punk man dude 69 Jan 20, 2008 11:12 AM

great song and great tab nice one dude

guest
You may want to rate the tab now too:
select rating
Wanna post a correction for this tab? Suggest correction