Oops, an error
Loading. Please wait.

From Yesterday Chords

version 4
version 4
5,711 views 183 this week
2 commentsread comments
1 2 3 4 5
3 more votes to show rating
add to favorites
launch autoscroll
font size
0
reset
transpose
0
reset
display chords
guitar tuner
Autoscroll
slow
fast
+/-
esc
set tempo
stop
Help us to improve Ultimate-Guitar.com Take our survey!
×
Author
From Yesterday, 30 Seconds To Mars
Tabbed by : sara_gs91

Hello people! Any comments, feel free to email me at genius_sapphire@yahoo.com


DROP C , DAFCGC

  D#           G          A#          F

|-----|     |-----|     |----|     |-----|
|-----|     |-----|     |----|     |-----|  
|--5--|     |--9--|     |-12-|     |--7--| 
|--3--|     |--7--|     |-10-|     |--5--| 
|--3--|     |--7--|     |-10-|     |--5--|
|--3--|     |--7--|     |-10-|     |--5--|


      D#
He's a stranger to some
And a vision to none
       G
He can never get enough
Get enough of the one
       D#
For a fortune he'd quit
But it's hard to admit
       G
How it ends and begins
                            D#
On his face is a map of the world
                 G
   (A map of the world)
                            D#
On his face is a map of the world
               G
 (A map of the world)


     A#              F
From yesterday, it's coming
     G              D#
From yesterday, the fear
     A#            F
From yesterday, it calls him
     D#                                 G
But he doesn't want to read the message here

    D#             
On a mountain he sits, not of gold but of sin
            G
through the blood he can look, see the life that he took
         D#
From the council of one
                                     G
He'll decide what he's done with the innocent
                             D#
On his face is a map of the world
              G
(A map of the world)
                            D#
On his face is a map of the world
              G
(A map of the world)



A#              F
From yesterday, it's coming
     G              D#
From yesterday, the fear
     A#            F
From yesterday, it calls him
     D#                                 
But he doesn't want to read the message
D#
He doesnt want to read the message
G
He doent want to read the message


Here

D|---------------------------------------------|
A|---------------------------------------------|
F|---------9-9~10-10--9-9-9-9~10-10------------|
C|---7-7----------------------------------3-3--|
G|---7-7---7-7~8-8----7-7-7-7~8-8---------3-3--|
C|---7-7----------------------------------3-3--|

D|---------------------------------------------|
A|---------------------------------------------|
F|---------------------------------------------|
C|----------3-3---2-2--------------------------|
G|----------3-3---2-2--------------------------|
C|----------3-3---2-2--------------------------|

D|---------------------------------------------|
A|---------------------------------------------|
F|---------9-9~10-10--9-9-9-9~10-10------------|
C|---7-7----------------------------------3-3--|
G|---7-7---7-7~8-8----7-7-7-7~8-8---------3-3--|
C|---7-7----------------------------------3-3--|


    On his face is a map of the world

D|---------------------------------------------|
A|---------------------------------------------|
F|---------------------------------------------|
C|----------3-------5--------------------------|
G|----------3-------5--------------------------|
C|----------3-------5--------------------------|

D|---------------------------------------------|
A|---------------------------------------------|
F|---------9-9~10-10--9-9-9-9~10-10------------|
C|---7-7----------------------------------3-3--|
G|---7-7---7-7~8-8----7-7-7-7~8-8---------3-3--|
C|---7-7----------------------------------3-3--|

D|---------------------------------------------|
A|---------------------------------------------|
F|---------------------------------------------|
C|----------3-3---2-2--------------------------|
G|----------3-3---2-2--------------------------|
C|----------3-3---2-2--------------------------

D|---------------------------------------------|
A|---------------------------------------------|
F|---------9-9~10-10--9-9-9-9~10-10------------|
C|---7-7---------------------------------------|
G|---7-7---7-7~8-8----7-7-7-7~8-8--------------|
C|---7-7---------------------------------------|

D|---------------------------------------------|
A|---------------------------------------------|
F|---------------------------------------------|
C|----------5----------------------------------|
G|----------5----------------------------------|
C|----------5----------------------------------|

A#              F
From yesterday, it's coming
     G              D#
From yesterday, the fear
     A#            F
From yesterday, it calls him
     D#                         G         
But he doesn't want to read the message here
    
A#              F
From yesterday, from yesterday
     G              D#
From yesterday, the fear
     A#            F
From yesterday, from yesterday
     D#                                  
But he doesn't want to read the message
D#
he doesn't want to read the message
G
he doesn't want to read the message

Here

D|---------------------------------------------|
A|---------------------------------------------|
F|---------9-9~10-10--9-9-9-9~10-10------------|
C|---7-7----------------------------------3-3--|
G|---7-7---7-7~8-8----7-7-7-7~8-8---------3-3--|
C|---7-7----------------------------------3-3--|

~ slide
Suggest correction
Give kudos to tab author, rate the tab!
1 2 3 4 5
comments
print report bad tab
2 comments total.
0 reply
godisasniper 60 Jun 25, 2009 11:29 AM

Seems good...but why put it in drop C if it doesn't need to be? If you're not going lower than the 2nd fret, there's no point...just my 2 cents.

0 reply
sara_gs91 20 Sep 16, 2009 01:01 PM

hello godisasniper! :)

i put it in drop C because it's easier to play the bridge in that tuning...

and 30 seconds to mars also uses drop C when they're playing it in acoustic version..

anyway, thanks for the comment! weeeeeeeeeeeee~

guest
You may want to rate the tab now too:
select rating
Wanna post a correction for this tab? Suggest correction