Oops, an error
Loading. Please wait.

From Yesterday Tab

version 4
10,044 views 3 this week
7 commentsread comments
1 2 3 4 5
accurate
x 5
add to favorites
launch autoscroll
font size
0
reset
how to read this tab
guitar tuner
Tab Pro tools
  • play this tab
  • loop segment
  • change instrument
  • show fretboard
  • metronome
×
Best way to learn
"From Yesterday"
Autoscroll
slow
fast
+/-
esc
set tempo
stop
Song: From Yesterday
Band: 30 Seconds To Mars
Album: A Beautiful Lie

Tabbed by: Louisa Pang, March 6, 2007

Tuning: Standard

Legend
~ let ring
/ slide

This tab has some notes that you might not hear right away when you listen to the song,
if you listen closely then you can hear them. I decided to do my own tab, when I found
all the other ones were missing these little notes and some were kind of wrong too, so 
my attempt at it. Haha you'll also notice that I tabbed this a long time ago, but I
didn't bother posting it until now.


Intro/ Verse 1 (repeat ‘til chorus)
|-------------------------------------------------------------------|
|-------------------------------------------------------------------|
|-------------------------------------------------------------------|
|-----8-----8-----8-----8-----8-7-------8-----8-----8-----8-----8-7-|
|-6-6---6-6---6-6---6-6---6-6-------5-5---5-5---5-5---5-5---5-5-----|
|-------------------------------------------------------------------|


Chorus
|-------------------------------------------------------------------|
|-------------------------------------------------------------------| repeat after first
|-10101010101010101010101010101010----------------------------------| ending, then go to
|--8-8-8-8-8-8-8-8-8-8-8-8-8-8-8-8-10101010101010101010101010101010-| second ending
|--8-8-8-8-8-8-8-8-8-8-8-8-8-8-8-8--8-8-8-8-8-8-8-8-8-8-8-8-8-8-8-8-|
|-----------------------------------8-8-8-8-8-8-8-8-8-8-8-8-8-8-8-8-|

|FIRST ENDING|			      |SECOND ENDING|
|-----------------------------------|---------------------------------------------------|
|-----------------------------------|---------------------------------------------------|
|-7777777779999999------------------|---------------------------------------------------|
|-7777777779999999-8888888887777777-|-8888888888888888-10101010101010101010101010101010-|
|-5555555557777777-8888888887777777-|-8888888888888888-10101010101010101010101010101010-|
|------------------6666666665555555-|-6666666666666666--8-8-8-8-8-8-8-8-8-8-8-8-8-8-8-8-|


Verse 2
Play Verse 1 x2
Then
|--------------------------------------------------|
|--------------------------------------------------|
|--------------------------------------------------|
|--------------------------------------------------| x2
|-6-6-6-6-6-6--6-6-6-6-6~--5-5-5-5-5-5--5-5-5-5-5~-|
|--------------------------------------------------|

Chorus
|-------------------------------------------------------------------|
|-------------------------------------------------------------------| repeat after first
|-10101010101010101010101010101010----------------------------------| ending, then go to
|--8-8-8-8-8-8-8-8-8-8-8-8-8-8-8-8-10101010101010101010101010101010-| second ending
|--8-8-8-8-8-8-8-8-8-8-8-8-8-8-8-8--8-8-8-8-8-8-8-8-8-8-8-8-8-8-8-8-|
|-----------------------------------8-8-8-8-8-8-8-8-8-8-8-8-8-8-8-8-|

|FIRST ENDING|			      |SECOND ENDING|
|-----------------------------------|-----------------------------------|
|-----------------------------------|-----------------------------------|
|-7777777779999999------------------|------------------8888888888888888-|
|-7777777779999999-8888888887777777-|-8888888888888888-8888888888888888-|
|-5555555557777777-8888888887777777-|-8888888888888888-6666666666666666-|
|------------------6666666665555555-|-6666666666666666------------------|


Pre-Bridge
|--------------------------------------|
|--------------------------------------|
|-10101010101010101010101010101010-----|
|-10101010101010101010101010101010--55-|
|--8-8-8-8-8-8-8-8-8-8-8-8-8-8-8-8--55-|
|-----------------------------------33-|


Bridge
|----------------------------|------------------|-----------------|
|----------------------------|------------------|-----------------|
|-7788-7777/888--------------|-7788-7777/888----|-----------------|
|-7788-7777/888-88~-88-77-55-|-7788-7777/888-88~|-88----77----55--|
|-5566-5555/666-88~-88-77-55-|-5566-5555/666-88~|-88----77----55--|
|---------------66~-66-55-33-|---------------66~|-66----55----33--|
						   |                 |
                           |-----------------|--------| this is what the
                           |--------------------------|    | second guitar
                           |--------------------------|    | plays at this
						   |-88~/1010~/1212~-|    | time, so you
						   |-88~/1010~/1212~-|    | can play it if
						   |-66~/-8-8~/1010~-|----| you want

|----------------------------|-----------------------------------|
|----------------------------|-----------------------------------|
|-7788-7777/888--------------|-7788-7777/888-88888888-1010101010-|
|-7788-7777/888-88~-88-77-55-|-7788-7777/888-88888888-1010101010-|
|-5566-5555/666-88~-88-77-55-|-5566-5555/666-66666666--8-8-8-8-8-|
|---------------66~-66-55-33-|-----------------------------------|


Chorus
|-------------------------------------------------------------------|
|-------------------------------------------------------------------| repeat after first
|-10101010101010101010101010101010----------------------------------| ending, then go to
|--8-8-8-8-8-8-8-8-8-8-8-8-8-8-8-8-10101010101010101010101010101010-| second ending
|--8-8-8-8-8-8-8-8-8-8-8-8-8-8-8-8--8-8-8-8-8-8-8-8-8-8-8-8-8-8-8-8-|
|-----------------------------------8-8-8-8-8-8-8-8-8-8-8-8-8-8-8-8-|

|FIRST ENDING|			      |SECOND ENDING|
|-----------------------------------|---------------------------------------------------|
|-----------------------------------|---------------------------------------------------|
|-7777777779999999------------------|------------------10101010101010101010101010101010-|
|-7777777779999999-8888888887777777-|-8888888888888888-10101010101010101010101010101010-|
|-5555555557777777-8888888887777777-|-8888888888888888--8-8-8-8-8-8-8-8-8-8-8-8-8-8-8-8-|
|------------------6666666665555555-|-6666666666666666----------------------------------|

|-------------------------------------------------------------------|
|-------------------------------------------------------------------| repeat after first
|-10101010101010101010101010101010----------------------------------| ending, then go to
|--8-8-8-8-8-8-8-8-8-8-8-8-8-8-8-8-10101010101010101010101010101010-| second ending
|--8-8-8-8-8-8-8-8-8-8-8-8-8-8-8-8--8-8-8-8-8-8-8-8-8-8-8-8-8-8-8-8-|
|-----------------------------------8-8-8-8-8-8-8-8-8-8-8-8-8-8-8-8-|

|FIRST ENDING|			      |SECOND ENDING|
|-----------------------------------|-----------------------------------|
|-----------------------------------|-----------------------------------|
|-7777777779999999------------------|------------------8888888888888888-|
|-7777777779999999-8888888887777777-|-8888888888888888-8888888888888888-|
|-5555555557777777-8888888887777777-|-8888888888888888-6666666666666666-|
|------------------6666666665555555-|-6666666666666666------------------|


Outro
|----------------------------------|---------------------|
|----------------------------------|---------------------|
|-10101010101010101010101010101010-|----7788-7777/888----|
|-10101010101010101010101010101010-|-55-7788-7777/888-88-| End. Have fun!
|--8-8-8-8-8-8-8-8-8-8-8-8-8-8-8-8-|-55-5566-5555/666-88-|
|----------------------------------|-33---------------66-|
comments
print report bad tab
7 comments total. Showing first comments.
0 reply
jxmxsc wrote on September 26 2007, 01:37 pm

far better than the other ones! keep it up

0 reply
LosT.Teddy. wrote on December 28 2007, 03:02 pm

it's near to pefect , good job man ! ^^

0 reply
dewne wrote on February 3 2008, 11:31 am

Not the right notes, i think it's very bad..

I want to post or [tab]
guest
You may want to rate the tab now too:
select rating
Please do not post tabs as comments. Select "correction" instead!