Oops, an error
Loading. Please wait.

From Yesterday Bass Tab

version 5
version 5
329 views 1 this week
no commentswrite comment
1 2 3 4 5
3 more votes to show rating
add to favorites
launch autoscroll
font size
0
reset
guitar tuner
Autoscroll
slow
fast
+/-
esc
set tempo
stop
Help us to improve Ultimate-Guitar.com Take our survey!
×
Author
Difficulty
Tuning
novice
D A D G B E
:D not exactly how i played, but just so you can catch the drift. I left chords based on 
what a lead sheet for this song might look like on the top hopefully it will help you 
guys in some way XD

Verse
  Eb                              Gm
G-----------------------------------------------------------------|
D-----------------------------------------------------------------|
A-----------------------------------------------------------------|
D-1-1-1-1-1-1-1-1-1-1-1-1-1-0-1-0-5-5-5-5-5-5-5-5-7-7-7-7-8-8-8-8-|

Pre-Chorus
Eb                  Gm
G----------------------------------------------------------------|
D----------------------------------------------------------------|
A----------------------------------------------------------------|
D-1-1--------0-1-0--5-5----8-7-----------------------------------|

Chorus
  Bb              F                 Gm            Eb
G-------------------------------------------------------------------------|
D-------------------------------------------------------------------------|
A---------------------------------------------------------6-6-6-6-8-8-8-8-|
D-8-8-8-8-8-8-8-8-3-3-3-3-3-3-3-3-5-5-5-5-5-5-5-5-1-1-1-1-----------------|

Bridge/outro
  Gm                          Bb           A
G----------------------------------------------------------------|
D----------------------------------------------------------------|
A------5-5-6-6----5---5-5-6-6------------------------------------|
D-5-5--------------------------8-8----8-8--7-7-------------------|
Suggest correction
Give kudos to tab author, rate the tab!
1 2 3 4 5
comments
print report bad tab
guest
You may want to rate the tab now too:
select rating
Wanna post a correction for this tab? Suggest correction