Oops, an error
Loading. Please wait.

From Yesterday Tab

version 6
42,388 views 30 this week
5 commentsread comments
1 2 3 4 5
x 24
add to favorites
launch autoscroll
font size
0
reset
how to read this tab
guitar tuner
Autoscroll
slow
fast
+/-
esc
set tempo
stop
Help us to improve Ultimate-Guitar.com Take our survey!
×
Author
Difficulty
Tuning
intermediate
D A D G B E
-----------------------------------------------------------------
From Yesterday - 30 Seconds to Mars
-----------------------------------------------------------------

Tabbed by: Thomas Harper
Email: Tomofwbury@hotmail.co.uk         
Tuning: Drop D

This is probably one of my favourite songs of all time and I've got a
little bored so I've decided to try and tab it out fully, with extra 
guitar parts in the background. I've also tried adding the guitar part
at the start that other tabs have seemed to miss out. Also I've done drop D
tuning which no one else seems to have done, I think it sounds 
better with drop tuning, plus Jared has Drop D tuning when playing 
live. Some bits are quite tricky to understand but if you 
listen to the record carefully you can understand it.  

Anyways, I should point out that this is my second tab, 
but only first on guitar. Any corrections, please tell me :)

Intro & Verse 1
1st Guitar (0:09)
(Gradually gets louder)
(Play around with this lick, listen carefully to the song)

E|---------------|
B|---------------|
G|----15-14------|
D|----------15---| 
A|---------------|
E|---------------|

2nd guitar (0:15)
(Gradually getting louder)
(Repeat until chorus)
|------------------------------------------------------------------|
|------------------------------------------------------------------|
|------------------------------------------------------------------|
|-----8-----8-----8-----8-----8-7------8-----8-----8-----8-----8-7-|
|-6-6---666---666---666---6-6------5-5---555---555---555---5-5-----|
|------------------------------------------------------------------|


Chorus (0:58)
1st Guitar 
E|-----------------------------------------------------------------|
B|-----------------------------------------------------------------|
G|-----------------------------------------------------------------|
D|---8----------3----------5-------------1-------------------------|
A|---8-(x16)----3-(x16)----5-(x16)-------1-(x16)-------------------|
E|---8----------3----------5-------------1-------------------------|

E|-----------------------------------------------------------------|
B|-----------------------------------------------------------------|
G|-----------------------------------------------------------------|
D|---8----------3----------1-------------3-------------------------|
A|---8-(x16)----3-(x16)----1-(x16)-------3-(x16)-------------------|
E|---8----------3----------1-------------3-------------------------|

2nd guitar
E|----------------------------------------------------------------|
B|----------------------------------------------------------------|
G|--15 (x16)-14-14-14-14-1415b-14-14-14-14-14-15-17-14------------|
D|----------------------------------------------------------------|
A|----------------------------------------------------------------|
E|----------------------------------------------------------------|

E|----------------------------------------------------------------|
B|----------------------------------------------------------------|
G|--15 (x16)-14-14-14-14-14-15-14-17-17-17-17-17-14-14-14---------|
D|----------------------------------------------------------------|
A|----------------------------------------------------------------|
E|----------------------------------------------------------------|

E|----------------------------------------------------------------|
B|----------------------------------------------------------------|
G|--15 (x16)-14-14-14-14-14-14-14-14b-14b-14b-14b-14b-14b-14b-14b-|
D|----------------------------------------------------------------|
A|----------------------------------------------------------------|
E|----------------------------------------------------------------|

E|----------------------------------------------------------------|
B|----------------------------------------------------------------|
G|--15 (x16)-14-14-14-14-14-15-14-17-17-17-17-17-17-17-17~~~~-----|
D|----------------------------------------------------------------|
A|----------------------------------------------------------------|
E|----------------------------------------------------------------|


Verse 2 (1:28)
1st guitar
(Again listen to the song and play around with it, you'll figure it out)

E|---------------|
B|---------------|
G|----15-14------|
D|----------15---| 
A|---------------|
E|---------------|

2nd guitar
|------------------------------------------------------------------|
|------------------------------------------------------------------|
|------------------------------------------------------------------|
|-----8-----8-----8-----8-----8-7------8-----8-----8-----8-----8-7-|
|-6-6---666---666---666---6-6------5-5---555---555---555---5-5-----|
|------------------------------------------------------------------|


Pre-Chorus (1:42)
E|---------------------------------------------------------|
B|---------------------------------------------------------|
G|---------------------------------------------------------| 
D|----888888-88888888--888888-8888888888---(x2)—7~~~~~~~~~-|
A|----666666-66666666--555555-5555555555-------------------|
E|---------------------------------------------------------|


Chorus (1:57)
1st Guitar 
E|-----------------------------------------------------------------|
B|-----------------------------------------------------------------|
G|-----------------------------------------------------------------|
D|---8----------3----------5-------------1-------------------------|
A|---8-(x16)----3-(x16)----5-(x16)-------1-(x16)-------------------|
E|---8----------3----------5-------------1-------------------------|

E|-----------------------------------------------------------------|
B|-----------------------------------------------------------------|
G|-----------------------------------------------------------------|
D|---8----------3----------1-------------1-------------------------|
A|---8-(x16)----3-(x16)----1-(x16)-------1-(x16)-------------------|
E|---8----------3----------1-------------1-------------------------|

2nd guitar
E|----------------------------------------------------------------|
B|----------------------------------------------------------------|
G|--15 (x16)-14-14-14-14-1415b-14-14-14-14-14-15-17-14------------|
D|----------------------------------------------------------------|
A|----------------------------------------------------------------|
E|----------------------------------------------------------------|

E|----------------------------------------------------------------|
B|----------------------------------------------------------------|
G|--15 (x16)-14-14-14-14-14-15-14-17-17-17-17-17-14-14-14---------|
D|----------------------------------------------------------------|
A|----------------------------------------------------------------|
E|----------------------------------------------------------------|

E|----------------------------------------------------------------|
B|----------------------------------------------------------------|
G|--15 (x16)-14-14-14-14-14-14-14-14b-14b-14b-14b-14b-14b-14b-14b-|
D|----------------------------------------------------------------|
A|----------------------------------------------------------------|
E|----------------------------------------------------------------|

E|----------------------------------------------------------------|
B|----------------------------------------------------------------|
G|--15 (x16)------------------------------------------------~-----|
D|----------------------------------------------------------------|
A|----------------------------------------------------------------|
E|----------------------------------------------------------------|


"HE DOESN'T WANT TO READ THE MESSAGE HERE!" (2:25)

1st guitar
E|---------------------------------------------------------------|
B|---------------------------------------------------------------|
G|---------------------------------------------------------------|
D|--8------------------------------------------------------------|
A|--8-(x32)------------------------------------------------------|
E|--8------------------------------------------------------------|

2nd guitar
E|---------------------------------------------------------------|
B|---------------------------------------------------------------|
G|--15-----------------------------------------------------------|
D|--x--(x32)-----------------------------------------------------|
A|--13-----------------------------------------------------------|
E|---------------------------------------------------------------|


Bridge (2:29)

1st guitar
E|---------------------------------------------------------------|
B|---------------------------------------------------------------|
G|---------------------------------------------------------------|
D|--55--1212--1313-----12121212-1313---88---88-77----------------|
A|--55--1212--1313-----12121212-1313---88---88-77----------------|
E|--55--1212--1313-----12121212-1313---88---88-77----------------|

E|---------------------------------------------------------------|
B|---------------------------------------------------------------|
G|---------------------------------------------------------------|
D|--55--1212--1313-----12121212-1313---88---88-1010--------------|
A|--55--1212--1313-----12121212-1313---88---88-1010--------------|
E|--55--1212--1313-----12121212-1313---88---88-1010--------------|

E|---------------------------------------------------------------|
B|---------------------------------------------------------------|
G|---------------------------------------------------------------|
D|--55--1212--1313-----12121212-1313---88---88-77----------------|
A|--55--1212--1313-----12121212-1313---88---88-77----------------|
E|--55--1212--1313-----12121212-1313---88---88-77----------------|

E|---------------------------------------------------------------|
B|---------------------------------------------------------------|
G|---------------------------------------------------------------|
D|--55--1212--1313-----12121212-1313---8888888-1010101010101010--|
A|--55--1212--1313-----12121212-1313---8888888-1010101010101010--|
E|--55--1212--1313-----12121212-1313---8888888-1010101010101010--|

2nd guitar
E|---------------------------------------------------------------|
B|---------------------------------------------------------------|
G|---------------------------------------------------------------|
D|--55--1212--1313-----12121212-1313---88---88-77----------------|
A|---------------------------------------------------------------|
E|---------------------------------------------------------------|

E|---------------------------------------------------------------|
B|---------------------------------------------------------------|
G|---------------------------------------------------------------|
D|--55--1212--1313-----12121212-1313---88---88-1010--------------|
A|---------------------------------------------------------------|
E|---------------------------------------------------------------|

E|---------------------------------------------------------------|
B|---------------------------------------------------------------|
G|---------------------------------------------------------------|
D|-8-(x16)--------------------------10-(x16)---------------------|
A|---------------------------------------------------------------|
E|---------------------------------------------------------------|

E|---------------------------------------------------------------|
B|---------------------------------------------------------------|
G|---------------------------------------------------------------|
D|-12-(x16)-------------------------20-(x8)---22-(x5)------------|
A|---------------------------------------------------------------|
E|---------------------------------------------------------------|
 
(Or, if you struggle to reach 22, Play this)

E|---------------------------------------------------------------|
B|---------------------------------------------------------------|
G|---------------------------------------------------------------|
D|-12-(x16)-------------------------15-(x8)---17-(x5)------------|
A|---------------------------------------------------------------|
E|---------------------------------------------------------------|


Chorus (2:58)
1st Guitar 
E|-----------------------------------------------------------------|
B|-----------------------------------------------------------------|
G|-----------------------------------------------------------------|
D|---8----------3----------5-------------1-------------------------|
A|---8-(x16)----3-(x16)----5-(x16)-------1-(x16)-------------------|
E|---8----------3----------5-------------1-------------------------|

E|-----------------------------------------------------------------|
B|-----------------------------------------------------------------|
G|-----------------------------------------------------------------|
D|---8----------3----------1-------------3-------------------------|
A|---8-(x16)----3-(x16)----1-(x16)-------3-(x16)-------------------|
E|---8----------3----------1-------------3-------------------------|

E|-----------------------------------------------------------------|
B|-----------------------------------------------------------------|
G|-----------------------------------------------------------------|
D|---8----------3----------5-------------1-------------------------|
A|---8-(x16)----3-(x16)----5-(x16)-------1-(x16)-------------------|
E|---8----------3----------5-------------1-------------------------|

E|-----------------------------------------------------------------|
B|-----------------------------------------------------------------|
G|-----------------------------------------------------------------|
D|---8----------3----------1-------------1-------------------------|
A|---8-(x16)----3-(x16)----1-(x16)-------1-(x16)-------------------|
E|---8----------3----------1-------------1-------------------------|

2nd guitar
E|----------------------------------------------------------------|
B|----------------------------------------------------------------|
G|--15 (x16)-14-14-14-14-1415b-14-14-14-14-14-15-17-14------------|
D|----------------------------------------------------------------|
A|----------------------------------------------------------------|
E|----------------------------------------------------------------|

E|----------------------------------------------------------------|
B|----------------------------------------------------------------|
G|--15 (x16)-14-14-14-14-14-15-14-17-17-17-17-17-14-14-14---------|
D|----------------------------------------------------------------|
A|----------------------------------------------------------------|
E|----------------------------------------------------------------|

E|----------------------------------------------------------------|
B|----------------------------------------------------------------|
G|--15 (x16)-14-14-14-14-14-14-14-14b-14b-14b-14b-14b-14b-14b-14b-|
D|----------------------------------------------------------------|
A|----------------------------------------------------------------|
E|----------------------------------------------------------------|

E|----------------------------------------------------------------|
B|----------------------------------------------------------------|
G|--15 (x16)-14-14-14-14-14-15-14-17-17-17-17-17-14-14-14---------|
D|----------------------------------------------------------------|
A|----------------------------------------------------------------|
E|----------------------------------------------------------------|

E|----------------------------------------------------------------|
B|----------------------------------------------------------------|
G|--15 (x16)-14-14-14-14-1415b-14-14-14-14-14-15-17-14------------|
D|----------------------------------------------------------------|
A|----------------------------------------------------------------|
E|----------------------------------------------------------------|

E|----------------------------------------------------------------|
B|----------------------------------------------------------------|
G|--15 (x16)-14-14-14-14-14-15-14-17-17-17-17-17-14-14-14---------|
D|----------------------------------------------------------------|
A|----------------------------------------------------------------|
E|----------------------------------------------------------------|

E|----------------------------------------------------------------|
B|----------------------------------------------------------------|
G|--15 (x16)-14-14-14-14-14-14-14-14b-14b-14b-14b-14b-14b-14b-14b-|
D|----------------------------------------------------------------|
A|----------------------------------------------------------------|
E|----------------------------------------------------------------|

E|----------------------------------------------------------------|
B|----------------------------------------------------------------|
G|--15 (x16)------------------------------------------------------|
D|----------------------------------------------------------------|
A|----------------------------------------------------------------|
E|----------------------------------------------------------------|


"HE DOESN'T WANT TO READ THE MESSAGE HERE!" (3:56)

1st guitar
E|---------------------------------------------------------------|
B|---------------------------------------------------------------|
G|---------------------------------------------------------------|
D|--8------------------------------------------------------------|
A|--8-(x32)------------------------------------------------------|
E|--8------------------------------------------------------------|

2nd guitar
E|----------------------------------------------------------------|
B|----------------------------------------------------------------|
G|--17-17-17-17-17b-17b-17b-17b-17b-17b---------------------------|
D|----------------------------------------------------------------|
A|----------------------------------------------------------------|
E|----------------------------------------------------------------|


Outro (3:59)

1st guitar
E|---------------------------------------------------------------|
B|---------------------------------------------------------------|
G|---------------------------------------------------------------|
D|--55--1212--1313-----12121212-1313---88------------------------|
A|--55--1212--1313-----12121212-1313---88------------------------|
E|--55--1212--1313-----12121212-1313---88------------------------|

2nd guitar 
E|---------------------------------------------------------------|
B|---------------------------------------------------------------|
G|---------------------------------------------------------------|
D|--55--1212--1313-----12121212-1313---88------------------------|
A|---------------------------------------------------------------|
E|---------------------------------------------------------------|


Tablature Notation

h - hammer on 
p - pull off 
b - bend string up
r - release bend
/ - slide up
\ - slide down
v - vibrato (or ~)
t - right hand tap
x - play 'note' with heavy muting
Suggest correction
comments
print report bad tab
5 comments total. Showing first comments.
+2 reply
godisasniper 60 Jun 14, 2010 08:14 AM

Perfect, methinks. Good job.

+2 reply
Stormer391 10 Sep 22, 2010 11:44 PM

Very good tab but if you play in Drop D shouldn't it EBGDAD?
Not EBGDAE

+2 reply
Stormer391 10 Sep 29, 2010 03:13 AM

^ i mean DADGBE lowest to highest

guest
You may want to rate the tab now too:
select rating
Wanna post a correction for this tab? Suggest correction