Oops, an error
Loading. Please wait.

From Yesterday Tab

version 7
10,839 views 6 this week
no commentswrite comment
1 2 3 4 5
x 4
add to favorites
launch autoscroll
font size
0
reset
how to read this tab
guitar tuner
Autoscroll
slow
fast
+/-
esc
set tempo
stop
Help us to improve Ultimate-Guitar.com Take our survey!
×
Author
Difficulty
Tuning
novice
C G C G C E
-------------------------------------------------------------------------------
                             From Yesterday - 30 Seconds To Mars
-------------------------------------------------------------------------------
Tabbed by:The telltaleheart25
Email:www.youtube.com/user/thetelltaleheart25

Tuning:(Low To High) C,G,C,F,A,D
 
 Intro/Synth effect(I use a electro-harmonix synth) Guitar 1
e|--8--7----8--7-----8--7----8--7------8-7-----8---7-----8--7-----8---7------|
B|--------8-------8--------8-------8--------8---------8---------8---------8--|
G|---------------------------------------------------------------------------|
D|---------------------------------------------------------------------------|
A|---------------------------------------------------------------------------|
E|---------------------------------------------------------------------------|

 Guitar 2 (Clean)Riff A/Rhy Fig 1
e|---------------------------------------------------------------------------|
B|---------------------------------------------------------------------------|
G|-12---------9-----------12------10-------9---9---9---7---7----7---7--------|
D|-10-X16----10--X16------10-X16--10-X8----10--10-10--10---10--10---10-------|
A|---------------------------------------------------------------------------|
E|---------------------------------------------------------------------------|
 Guitar 1 (Clean W/Delay)Riff A
e|---------------------------------------------------------------------------|
B|---------------------------------------------------------------------------|
G|---------------------------------------------------------------------------|
D|--------10--------10--------10-------10--------10h9-------10-------10------|
A|--8--8------8--8------8--8------8--8-----8--8--------0--0-----0-0----------|
E|---------------------------------------------------------------------------|


 Guitar 1 (Clean w/delay)
e|-----------------------------
B|-----------------------------End Riff A/Rhy Fig.1
G|-----------------------------
D|--------10---------10h9------
A|--0--0-------0--0------------
E|-----------------------------

 Rhy Fig.1 then played 4x 
 
 Gtr.2(Rhy Fig.2)He's a stranger to some……...
e|---------------------------------------------------------------------------|
B|---------------------------------------------------------------------------|End Rhy Fig.2
G|--12---------9---------12---------10---------9---9---9-----7--7---7---7----|then play ...
D|--10--X16---10--X12----10--X16----10--X12---10--10--10----10-10--10--10----|
A|---------------------------------------------------------------------------|
E|---------------------------------------------------------------------------|
  
 Rhy.Fig 3 (Clean) (played W/Rhy Fig.2)
 ( A map of the world)….On his Face is a …………………….End Rhy Fig.3
e|-8----------7--------------------------------------------------------------|
B|-6--X16-----5--X16---------------------------------------------------------|
G|---------------------------------------------------------------------------|
D|---------------------------------------------------------------------------|
A|---------------------------------------------------------------------------|
E|---------------------------------------------------------------------------|
 
 (Chorus)-Seriously dubbed a lot but there is 4 guitars so listen closely

 ter----day……….iy's coming……………………………………….from yes-----……………………………….
 w/heavy reverb
e|-8-8-8-8-8-8-8-8-8-8-8-8-8-8-8-8-8-8\-7-7-7-7-7--8--10--7-7-7--7---8---10--|
B|-8-8-8-8-8-8-8-8-8-8-8-8-8-8-8-8-8-8\--------------------------------------|
G|---------------------------------------------------------------------------|
D|---------------------------------------------------------------------------|
A|---------------------------------------------------------------------------|
E|---------------------------------------------------------------------------|
 [ Gtr.2                                                                     ]
e|---------------------------------------------------------------------------|
B|---------------------------------------------------------------------------|
G|--12--------7--------------------------------------------------------------|
D|---x--------X--------------------------------------------------------------|
A|--10--X16---5---X16--------------------------------------------------------|
E|---------------------------------------------------------------------------|
 [ Gtr.3                                                                     ]
e|---------------------------------------------------------------------------|
B|---------------------------------------------------------------------------|
G|--12-------------7---------------------------------------------------------|
D|--10--X16--------5--X16----------------------------------------------------|
A|---------------------------------------------------------------------------|
E|---------------------------------------------------------------------------|
 [ Gtr.4                                                                     ]
e|---------------------------------------------------------------------------|
B|---------------------------------------------------------------------------|
G|---------------------------------------------------------------------------|
D|--10---------5-------------------------------------------------------------|
A|--10---------5-------------------------------------------------------------|
E|--10-X16-----5----X115-----------------------------------------------------|


  ------ter-day……….the fear ---------------------------------from yes-------
 Gtr.1
e|--8--------7-7--7---7---7--8--10-----10---10---10---10----8-----7----------|
B|--8-X16--------------------------------------------------------------------|
G|---------------------------------------------------------------------------|
D|---------------------------------------------------------------------------|
A|---------------------------------------------------------------------------|
E|---------------------------------------------------------------------------|
 [ Gtr.2                                                                     ]
e|---------------------------------------------------------------------------|
B|---------------------------------------------------------------------------|
G|--9--------10------12\--5--------------------------------------------------|
D|--x--------X-------X----X--------------------------------------------------|
A|--7--X8----8--X6---10\--3--X16---------------------------------------------|
E|---------------------------------------------------------------------------|
 [ Gtr.3                                                                     ]
e|---------------------------------------------------------------------------|
B|--------------------------------3---3---3--3--0--0-------------------------|
G|--9-------------------5---------4---4---4--4--0--0-------------------------|
D|--7--X16--------------3--X8-----3---3---3--3-------------------------------|
A|---------------------------------------------------------------------------|
E|---------------------------------------------------------------------------|
 [Gtr.4                                                                      ]
e|---------------------------------------------------------------------------|
B|---------------------------------------------------------------------------|
G|---------------------------------------------------------------------------|
D|--7--------3--------5--5---------------------------------------------------|
A|--7--------3--------5--5---------------------------------------------------|
E|--7--X16---3--X11---5--5---------------------------------------------------|


 -----ter----day--------it calls ----him but---------------------------------
  
 
e|-8-8-8-8-8-8--8--8-8-8--8--8--8--8--8--8--8--7-7--7--7--7--7--7B-B-B--B-7-7|Bend a 4th on
B|-8-8-8-8-8-8--8--8-8-8--8--8--8--8--8--8--8--------------------------------|the bends 
G|---------------------------------------------------------------------------|
D|---------------------------------------------------------------------------|
A|---------------------------------------------------------------------------|
E|---------------------------------------------------------------------------|

 
 He doesn't want to read the message here………………………………
 Gtr.1
e|--8----------7--7---7--7---7---8----10---13---13--13--13--13--13-----------|
B|--8--X16---------------------------------12---12--12--12--12--12-----------|
G|---------------------------------------------------------------------------|
D|---------------------------------------------------------------------------|
A|---------------------------------------------------------------------------|
E|---------------------------------------------------------------------------|
 [ Gtr.2                                                                     ]
e|---------------------------------------------------------------------------|
B|---------------------------------------------------------------------------|
G|--5--------------------7---------------------------------------------------|
D|--x--------------------x---------------------------------------------------|
A|--3---X16--------------5----X16--------------------------------------------|
E|---------------------------------------------------------------------------|
 [ Gtr.3                                                                     ]
e|---------------------------------------------------------------------------|
B|---------------------------------------------------------------------------|
G|---------------------------------------------------------------------------|
D|---------------------------------------------------------------------------|
A|---------------------------------------------------------------------------|
E|---------------------------------------------------------------------------|
 [  Gtr.4                                                                    ]
e|---------------------------------------------------------------------------|
B|---------------------------------------------------------------------------|
G|---------------------------------------------------------------------------|
D|--3-------------5----------------------------------------------------------|
A|--3-------------5----------------------------------------------------------|
E|--3--X16--------5----X16---------------------------------------------------|


 Chorus Ends Then Back to Verse With Rhy Fig 1
 towards the end of the verse there are stops and palm muting…Listen to song
 for timing
e|---------------------------------------------------------------------------|
B|---------------------------------------------------------------------------|
G|---------------------------------------------------------------------------|
D|--10----10-----P.M These---------------------------------------------------|
A|--8-----0------------------------------------------------------------------|
E|---------------------------------------------------------------------------|


 Bridge is pretty straight forward..again listen for timing on chords
 (Gtr 1)here---------------------------------------------------------------
                                                  (F5)
e|---------------------------------------------------------------------------|
B|---------------------------------------------------------------------------|
G|--9---9-----9--9\--10--10----------------------5---5-----5--5-------4--4---|
D|--x---x-----x--x---x---x---Repeat then---------x---x-----x--x-------x--x---|
A|--7---7-----7--7\--8---8-----------------------3---3-----3--3-------2--2---|Then Repeat and End
E|---------------------------------------------------------------------------| With F5 and
 [ Gtr.2)                                                                    ]  no octaves
e|---------------------------------------------------------------------------|see chord noted
B|---------------------------------------------------------------------------| above
G|------------9--9\--10--10----9--9--9--9--10-10-----------5--5------4--4----|
D|--7--7------x--x---x---x-----x--x--x--x--x--x---3---3----x--x------x--x----|
A|--7--7------7--7\--8---8-----7--7--7--7--8--8---3---3----3--3------2--2----|
E|--7--7------------------------------------------3---3----------------------|

 Single notes picked towards the end..Again listen to song for when to enter 
 and timing ...

e|---------------------------------------------------------------------------|
B|--0----0----0---0---0---0----0-----3---3----3---3---3---3---3----0---------|X8 means to play 
G|----5----5----5---5---5---5----5-----5---5----5---5---5---5---5----5---X8--|those 2 notes 8 more
D|--------------------------------------------------------------------------- with 2nd guitar
A|---------------------------------------------------------------------------|playing
E|---------------------------------------------------------------------------|
 octaves..see below                                                         
e|---------------------------------------------------------------------------|
B|---------------------------------------------------------------------------|
G|----------------------------------------------------------------9-9-9-9-10-|then Gsus4
D|----------------------------------------------------------------x-x-x-x-x--|
A|----------------------------------------------------------------7-7-7-7-8--|
E|---------------------------------------------------------------------------|

e|---------------------------------------------------------------------------|
B|---------------------------------------------------------------------------|
G|-------------------7--7--7--7--7--7----------------------------------------|
D|---5--5-5--5-5-5---5--5--5--5--5--5----------------------------------------|
A|---5--5-5--5-5-5---5--5--5--5--5--5----------------------------------------|
E|---5--5-5--5-5-5---5--5--5--5--5--5----------------------------------------|
     (Gsus4)         (G5)              


  (Gtr.1)
e|-------------|
B|-------------|
G|-12----------|
D|-x-----------|
A|-10---X16----|
E|-------------|
 [ Gtr.2                                                                      
e|-------------|
B|-------------|
G|--12---------|
D|--10---X16---|
A|-------------|
E|-------------|
 [ Gtr.3)                                                                     
e|--------------|
B|--------------|
G|--------------|
D|-10-----------|
A|-10---X16-----|
E|-10-----------|

Then chorus to outro and outré is the bridge part so there is everything and all 
here just listen to 
timing and chords to know when to change.But this everything and really simple to 
play just a lot of dubs 
in the recording.
Suggest correction
comments
print report bad tab
guest
You may want to rate the tab now too:
select rating
Wanna post a correction for this tab? Suggest correction