Oops, an error
Loading. Please wait.

From Yesterday Tab

version 8
694 views 1 this week
no commentswrite comment
1 2 3 4 5
please rate
add to favorites
launch autoscroll
font size
0
reset
how to read this tab
guitar tuner
Autoscroll
slow
fast
+/-
esc
set tempo
stop
Help us to improve Ultimate-Guitar.com Take our survey!
×
Author
Difficulty
novice
*Piano Intro*

Guitar Starts:

Verse 1:
e|-------------------------------------------------|
B|-x6----------------------------------------------|
G|-------------------------------------------------|
D|---8----8----8----8----8---8----8----8----8----8-|
A|-66--666--666--666--666--55--555--555--555--555--|
E|-------------------------------------------------|


Chorus 1:
e|----------------------------------------------------------------------|
B|-x2-------------------------------------------------------------------|
G|----------------------------------------------------77777777-88888888-|
D|-8888888888888888-3333333333333333-5555555555555555-77777777-88888888-|
A|-8888888888888888-3333333333333333-5555555555555555-55555555-66666666-|
E|-6666666666666666-1111111111111111-3333333333333333-------------------|


Verse 2:

this part..
e|-x2----------------------------------------------|
B|-------------------------------------------------|
G|-------------------------------------------------|
D|---8----8----8----8----8---8----8----8----8----8-|
A|-66--666--666--666--666--55--555--555--555--555--|
E|-------------------------------------------------|

..then this part
e|-x2----------------------------------------------|
B|-------------------------------------------------|
G|-------------------------------------------------|
D|-------------------------------------------------|
A|-6-6-6-6-6-6--6-6-6-6-6--5-5-5-5-5-5--5-5-5-5-5--|
E|-------------------------------------------------|


Chorus 2:
e|----------------------------------------------------------------------|
B|-x1-------------------------------------------------------------------|
G|----------------------------------------------------77777777-88888888-|
D|-8888888888888888-3333333333333333-5555555555555555-77777777-88888888-|
A|-8888888888888888-3333333333333333-5555555555555555-55555555-66666666-|
E|-6666666666666666-1111111111111111-3333333333333333-------------------|

e|-x1------------------------------------------------------------------------------------|
B|---------------------------------------------------------------------------------------|
G|---------------------------------------------------------------------77777777-88888888-|
D|-8888888888888888-3333333333333333-5555555555555555-5555555555555555-77777777-88888888-|
A|-8888888888888888-3333333333333333-5555555555555555-5555555555555555-55555555-66666666-|
E|-6666666666666666-1111111111111111-3333333333333333-3333333333333333-------------------|


Bridge Pt.1 ..
e|--------------------------------------------------------|
B|-x3-----------------------------------------------------|
G|--------------------------------------------------------|
D|-5-5---12-12-13 13---12-12-12-12-13-13---8-8---8-8-7-7--|
A|-5-5---12-12-13-13---12-12-12-12-13-13---8-8---8-8-7-7--|
E|-3-3---10-10-11-11---10-10-10-10-11-11---6-6---6-6-5-5--|

..then Bridge Pt.2 (this is the change from the Bridge to Chorus 3)
e|-----------------------------------------------------------------------------------|
B|-x1--------------------------------------------------------------------------------|
G|----------------------------------------8-8-8-8-8-8-8-8--10-10-10-10-10-10-10-10---|
D|-5-5---12-12-13-13---12-12-12-12-13-13--8-8-8-8-8-8-8-8--10-10-10-10-10-10-10-10---|
A|-5-5---12-12-13-13---12-12-12-12-13-13--6-6-6-6-6-6-6-6--8--8--8--8--8--8--8--8----|
E|-3-3---10-10-11-11---10-10-10-10-11-11---------------------------------------------|



Chorus 3 Pt.1:  ..
e|----------------------------------------------------------------------|
B|-x3-------------------------------------------------------------------|
G|----------------------------------------------------77777777-88888888-|
D|-8888888888888888-3333333333333333-5555555555555555-77777777-88888888-|
A|-8888888888888888-3333333333333333-5555555555555555-55555555-66666666-|
E|-6666666666666666-1111111111111111-3333333333333333-------------------|

..then the last part is altered slightly because of the change into the bridge at the end..
Chorus 3 Pt.2:
e|---------------------------------------------------------------------------------------|
B|-x1------------------------------------------------------------------------------------|
G|---------------------------------------------------------------------77777777-88888888-|
D|-8888888888888888-3333333333333333-5555555555555555-5555555555555555-77777777-88888888-|
A|-8888888888888888-3333333333333333-5555555555555555-5555555555555555-55555555-66666666-|
E|-6666666666666666-1111111111111111-3333333333333333-3333333333333333-------------------|


Ending:
e|------------------------------------------------|
B|-x1---------------------------------------------|
G|------------------------------------------------|
D|-5-5---12-12-13 13---12-12-12-12-13-13---8-8----|
A|-5-5---12-12-13-13---12-12-12-12-13-13---8-8----|
E|-3-3---10-10-11-11---10-10-10-10-11-11---6-6----|
Suggest correction
Give kudos to tab author, rate the tab!
1 2 3 4 5
comments
print report bad tab
guest
You may want to rate the tab now too:
select rating
Please do not post tabs as comments. Select "correction" instead!