Oops, an error
Loading. Please wait.

Kings And Queens Bass Tab

version 2
version 2

Whole song

Interactive

17,396 views 1 this week
3 commentsread comments
1 2 3 4 5
x 13
add to favorites
launch autoscroll
font size
0
reset
guitar tuner
Autoscroll
slow
fast
+/-
esc
set tempo
stop
Help us to improve Ultimate-Guitar.com Take our survey!
×
Author
Difficulty
Tuning
novice
D A D G B E
Is not 100% right, but I did my best :D.

Drop D tuning

Intro/Chorus:
G|------------------------------------|
D|------------------------------------|                    |
A|------------------------------------|                    |
D|-11111111-33333333-6666666666666666-|                    |
                                                           | x2
G|------------------------------------|                    |
D|----------------------------8888888-|                    |
A|------------------------------------|                    |
D|-11111111-33333333-666666666--------|

Verse:
No bass

Chorus:
G|------------------------------------|
D|------------------------------------|                    |
A|------------------------------------|                    |
D|-11111111-33333333-6666666666666666-|                    |
                                                           | x2
G|------------------------------------|                    |
D|----------------------------8888888-|                    |
A|------------------------------------|                    |
D|-11111111-33333333-666666666--------|

Post-Chorus:
G|------------------------------------|
D|-1111111111111111-------------------|
A|------------------------------------|
D|------------------6666666666666666--|

Verse:
G|------------------------------------------|
D|-1(x32)-----------------------------------|  
A|--------4444444444444444------------------|
D|-------------------------6666666666666666-| 

G|------------------------------------------|
D|-1(x32)-----------------------------------|  
A|--------4444444444444444/11(x16)----------|
D|------------------------------------------| 
 
G|----------------------------------------------|
D|----------------------------------------------|  
A|-6(x29)/888-4444444444444/666-----------------|
D|-----------------------------6666666666666666-|  

G|----------------------------------------------|
D|----------------------------------------------|  
A|-6(x29)/888-4444444444444/666/11(x14)\1-------| <= Slide from
D|----------------------------------------------|    11 to 1 fast

Chorus:
G|------------------------------------|
D|------------------------------------|   
A|------------------------------------|   
D|-11111111-33333333-6666666666666666-|  
                                          
G|------------------------------------|    
D|----------------------------8888888-|  
A|------------------------------------|   
D|-11111111-33333333-666666666--------|

G|------------------------------------|
D|------------------------------------|
A|-11111111---------------------------|
D|----------33333333-6666666666666666-|

G|------------------------------------|
D|---1---3--6(6)66-8888888888888888---|   
A|------------------------------------|   
D|-11-1-3-3---------------------------|  

Bridge:
No bass

Pre-Chorus:
G|------------------------------------|
D|-1h3--------------------------------| 1 hammer on 3   
A|------------------------------------|   
D|------------------------------------|  

Chorus:
G|------------------------------------|
D|------------------------------------|                    |re-
A|------------------------------------|                    |peat
D|-11111111-33333333-6666666666666666-|                    |until
                                                           | end.
G|------------------------------------|                    |
D|----------------------------8888888-|                    |
A|------------------------------------|                    |
D|-11111111-33333333-666666666--------|

Fade out: 
G|------------------------------------|
D|------------------------------------|
A|------------------------------------| 
D|-1~/6~\1~/6~\3~/6~-1~---------------|

Don't forget to rate :D
Suggest correction
comments
print report bad tab
3 comments total.
0 reply
Tease 203 Jan 27, 2010 09:12 AM

I'd say you've done a great job getting this tab sounding right my only critism is your decession to add the D)string)- 8 near end of song, dont think it fits. Fantastic though!

0 reply
RozzD 10 Jul 03, 2014 11:19 PM

In the "Fade Out part" I think it sounds better like this:

Fade out:
G|------------------------------------|
D|------------------------------------|
A|------------------------------------|
D|-1~/6~\1~/4~\3~/6~-1~---------------|

Replace the 6 in the center with a 4.

0 reply
Muser00 1,070 Nov 28, 2014 01:50 PM

didn't like this contribution

guest
You may want to rate the tab now too:
select rating
Wanna post a correction for this tab? Suggest correction