Oops, an error
Loading. Please wait.

Kings And Queens Bass Tab

version 4
version 4

Whole song

Interactive

703 views 1 this week
no commentswrite comment
1 2 3 4 5
please rate
add to favorites
launch autoscroll
font size
0
reset
guitar tuner
Tab Pro tools
  • play this tab
  • loop segment
  • change instrument
  • show fretboard
  • metronome
×
Best way to learn
"Kings And Queens"
Autoscroll
slow
fast
+/-
esc
set tempo
stop
Contributor
Difficulty
novice
Kings & Queens by Thirty Seconds to Mars
Tuning: Standard
(I'm just lazy to switch to the original tuning because I don't have a tuner, 
so I just transpose the tab to standard tuning. It sounds good though.) :}

Intro

G----------------------------------------------------------------|
D----------------------------------------------------------------|
A----------------------------------------------------------------|(4x)
E--11-11-11-11-11-11-1-1-1-1-1-1-4-4-4-4-4-4-4-4-4-4-4-4-4-4-----|

Verse (for you to do something)

G-----------------------------------|
D-----------------------------------| 
A-----------------------------------|
E—-11~---------9~-------------------|

G-----------------------------------|
D-----------------------------------|
A-----------------------------------|
E—-11~---------9~---------------4~--|

Pre-Chorus (for you to do something again)

G-----------------------------------|
D-----------------------------------|
A-----------------------------------|
E—-11~------11~------11~------11~---|

Chorus

G----------------------------------------------------------------|
D----------------------------------------------------------------|
A----------------------------------------------------------------|   3x
E--11-11-11-11-11-11-1-1-1-1-1-1-4-4-4-4-4-4-4-4-4-4-4-4-4-4-----|

G-----------------------------------------------------------------|
D-----------------------------------------------------------------|
A-----------------------------------------------------------------|
E--11-11-11-11-11-11-1-1-1-1-1-1-4-4-4-4-4-4-4\16-16-16-16-16-16--|

Post Chorus

G-------------------------------------------------------------------|
D-------------------------------------------------------------------|
A-------------------------------------------------------------------|
E--11-11-11-11-11-11-11-11-11-11-11-11-4-4-4-4-4-4-4-4-4-4-4-4-4-4--|

Verse 2

G--------------------------------------------------------------------|
D--------------------------------------------------------------------|
A--------------------------------------------------------------------|
E--11-11-11-11-11-11-11-11-11-11-11-11-9-9-9-9-9-9-9-4-4-4-4-4-4-4---|

G--------------------------------------------------------------------------|
D--------------------------------------------------------------------------|
A--------------------------------------------------------------------------|
E--11-11-11-11-11-11-11-11-11-11-11-11-9-9-9-9-9-9-9\16-16-16-16-16-16-16--|

G----------------------------------------------------------------|
D----------------------------------------------------------------|
A----------------------------------------------------------------|
E--11-11-11-11-11-11-11-11-11-13\-9-9-9-9-9-9-11\4-4-4-4-4-4-4---|

G----------------------------------------------------------------------|
D----------------------------------------------------------------------|
A----------------------------------------------------------------------|
E--11-11-11-11-11-11-11-11-11-13\-9-9-9-9-9-9-11\16-16-16-16-16-16-16--|

Chorus

G----------------------------------------------------------------|
D----------------------------------------------------------------|
A----------------------------------------------------------------|   3x
E--11-11-11-11-11-11-1-1-1-1-1-1-4-4-4-4-4-4-4-4-4-4-4-4-4-4-----|

G-----------------------------------------------------------------|
D-----------------------------------------------------------------|
A-----------13----13----13\18-18-18-18-18-18-18-18-18-18-18-18----|
E--11-11-11----11----11-------------------------------------------|

Last Chorus 

G---------------------------------------------------------------|(3x)*figure
D---------------------------------------------------------------|out the slow
A---------------------------------------------------------------|hammering           
E-10h11-11-11-11-11-11-1-1-1-1-1-1-4-4-4-4-4-4-4-4-4-4-4-4-4-4--|shit in the
                                                                 1st bar

G-----------------------------------------------------------------|
D-----------------------------------------------------------------|
A-----------------------------------------------------------------|
E--11-11-11-11-11-11-1-1-1-1-1-1-4-4-4-4-4-4-4\16-16-16-16-16-11~-|

Outro

G-----------------------------------------------------------------|
D-----------------------------------------------------------------|
A-----------------------------------------------------------------|
E--4~-------11~--------4~--------1~--------4~---------11~---------|


Please rate it. :} Thanks. 
comments
We did not receive enough feedback on this tab! Please rate:
print report bad tab
1 2 3 4 5
I want to post or [tab]
guest
You may want to rate the tab now too:
select rating
Please do not post tabs as comments. Select "correction" instead!