Oops, an error
Loading. Please wait.

Night Of The Hunter bass

version 2
version 2

Whole song

Interactive

166 views 1 this week
no commentswrite comment
1 2 3 4 5
3 more votes to show rating
add to favorites
×
Save as Personal and add changes to this tab that will be seen only by you. Learn more ›
×
You can save this tab as Personal to edit and correct it or add notes. All changes will be seen only by you. Learn more »
launch autoscroll
font size
0
reset
guitar tuner
edit
Autoscroll
slow
fast
+/-
esc
set tempo
stop
-------------------------------------------------------------------------------
                             Night Of The Hunter - 30 Seconds To Mars
-------------------------------------------------------------------------------
Tabbed by: music_freak27

Tuning: Drop C (CGCF)

Intro 0:09

F|----------------|----------------|33333-33-33-3333|55555-55-55-5555|
C|33333-33-33-3333|66666-66-66-6666|----------------|----------------|
G|----------------|----------------|----------------|----------------|  x2
C|----------------|----------------|----------------|----------------|
  1   2  3    4    1   2  3    4        


Verse one (rest)


Verse 2 0:50 - repeat 1st bar x4

I was hung from a tree...
F|----------------|----------------|1111111111111111|----------------|----------------|
C|3333333333333333|----------------|----------------|3333333333333333|3333333333333333|
G|----------------|4444444444444444|----------------|----------------|----------------|
C|----------------|----------------|----------------|----------------|----------------|
  1   2   3   4                     ^those are 1s!


pre-chorus 1:07

Pray to your god...
F|----------------|1111111111111111|----------------|----------------|
C|----------------|----------------|3333333333333333|6666666666666666|
G|4444444444444444|----------------|----------------|----------------|
C|----------------|----------------|----------------|----------------|
  1   2   3   4   

F|----------------|----------------|
C|----------------|1111111111111111|
G|4444444444444444|----------------|
C|----------------|----------------|

Chorus 1:19

One night of the hunter...
F|----------------|----------------|33333-33-33-3333|55555-55-55-5555|
C|33333-33-33-3333|66666-66-66-6666|----------------|----------------|
G|----------------|----------------|----------------|----------------|  x2
C|----------------|----------------|----------------|----------------|

F|--1--1--|--5--5--|--------|--------|--1--1--|--5--5--|--------|--------|
C|33-33-33/66-66-66|--3--3--|--5-----|33-33-33/66-66-66|--3--3--|----1111|
G|--------|--------|11-11-11|33-36611|--------|--------|11-11-11|3333----|
C|--------|--------|--------|--------|--------|--------|--------|--------|
  1+2+3+4+

Verse 3 rest

Verse 4 2:13 - repeat 1st bar x4

Skinned her alive...
F|----------------|----------------|1111111111111111|----------------|----------------|
C|3333333333333333|----------------|----------------|3333333333333333|3333333333333333|
G|----------------|4444444444444444|----------------|----------------|----------------|
C|----------------|----------------|----------------|----------------|----------------|
  1   2   3   4                     

pre-chorus 2:29

Pray to your god...
F|----------------|1111111111111111|----------------|----------------|
C|----------------|----------------|3333333333333333|6666666666666666|
G|4444444444444444|----------------|----------------|----------------|
C|----------------|----------------|----------------|----------------|

F|----------------|----------------|
C|----------------|1111111111111111|
G|4444444444444444|----------------|
C|----------------|----------------|

Chorus 2:42

One night of the hunter...
F|----------------|----------------|33333-33-33-3333|55555-55-55-5555|
C|33333-33-33-3333|66666-66-66-6666|----------------|----------------|
G|----------------|----------------|----------------|----------------|  x2
C|----------------|----------------|----------------|----------------|

F|--1--1--|--5--5--|--------|--------|--1--1--|--5--5--|--------|--------|
C|33-33-33/66-66-66|--3--3--|--5-----|33-33-33/66-66-66|--3--3--|--------|
G|--------|--------|11-11-11|33-36611|--------|--------|11-11-11|33333333|
C|--------|--------|--------|--------|--------|--------|--------|--------|

Bridge 3:15

(on the fifth time leave out the last 2 bars!)
F|--------|--------|--------|----------------|--------|--------|--------|--------|
C|--------|--------|66666666/1111111111111111\--------|--------|--------|--------|
G|44444444|66666666|--------|----------------|44444444|66666666|--------|44444444|  x5
C|--------|--------|--------|----------------|--------|--------|66666666|--------|
  1+2+3+4+                   ^11s!

Final chorus 4:34

F|----------------|----------------|33333-33-33-3333|55555-55-55-5555|
C|33333-33-33-3333|66666-66-66-6666|----------------|----------------|
G|----------------|----------------|----------------|----------------|  x2
C|----------------|----------------|----------------|----------------|

F|--1--1--|--5--5--|--------|--------|--1--1--|--5--5--|--------|--------|
C|33-33-33/66-66-66|--3--3--|--5-----|33-33-33/66-66-66|--3--3--|----1111|
G|--------|--------|11-11-11|33-36611|--------|--------|11-11-11|3333----|  x2
C|--------|--------|--------|--------|--------|--------|--------|--------|

F|----|
C|3~--|
G|----|
C|----|

This is my first tab so it won't be 100% accurate, though I hope it is as close as! Comments/feedback/rates
would be great to see :D


| /  slide up
| \  slide down
| h  hammer-on
| p  pull-off
| ~  vibrato
| +  harmonic
| x  Mute note
===============================================================================

            
            
Suggest correction
Creating personal tab
Creating personal tab
You can edit any tab online and save it as your Personal.

You can edit, replace or remove any tab part or add personal notes – all changes will be seen only by you.

Personal tabs can be accessed anytime from any device, even offline.
Learn more »
Give kudos to tab author, rate the tab!
1 2 3 4 5
comments
print report bad tab
guest
You may want to rate the tab now too:
select rating
Wanna post a correction for this tab? Suggest correction