Oops, an error
Loading. Please wait.

Story Tab

version 1
version 1

Acoustic

Interactive

2,167 views 15 this week
no commentswrite comment
1 2 3 4 5
please rate
add to favorites
launch autoscroll
font size
0
reset
how to read this tab
guitar tuner
Autoscroll
slow
fast
+/-
esc
set tempo
stop
Help us to improve Ultimate-Guitar.com Take our survey!
×
Author
Difficulty
Tuning
intermediate
C G C F A D
Tuning: Drop C (!!!) (C G C F A d)
The tabbed part is basically all you play, I've put chords over the words so its 
easier to follow, but its pretty simple, all you need to actually learn is
 the MAIN THEME progression, the BRIDGE and optionally that little 
FILL after the first chorus.

The performance I tabbed: http://www.youtube.com/watch?v=8SOB4M2jydE

Main theme: (you basically play this throughout the whole song)
#1 Db5      Eb5       Bb5
D|------------------|------------------|
A|------------------|------------------|
F|------------------|------------------|
C|-----6--------8---|-----3--------3-1-|
G|-4-4---4--6-6---6-|-1-1---1--1-1-----|
C|------------------|------------------|

#2 Db5      Eb5       Bb5
D|------------------|------------------|
A|------------------|------------------|
F|------------------|------------------|
C|-----6--------8---|-----3--------1-3-|
G|-4-4---4--6-6---6-|-1-1---1--1-1-----|
C|------------------|------------------|

Db5       Eb5         Bb5
I've been thinking of everything
  Db5     Eb5     Bb5
I used to want to be
Db5       Eb5         Bb5
I've been thinking of everything
 Db5     Eb5     Bb5
Of me, of you and me

            Db5   Eb5   Bb5
This is the story of my life
            Db5   Eb5   Bb5      Db5   Eb5   Bb5
This is the story of my life

   F#
d|
A|
F|---   -|-10   -|
C|-11 x8-|-11 x8-|
G|-9-   -|-9-   -|
C|---   -|---   -|


Db5        Eb5       Bb5
I'm in the middle of nothing, and
   Db5       Eb5     Bb5
It's where I want to be
Db5        Eb5       Bb5
I'm at the bottom of everything
Db5        Eb5         Bb5
And I finally start to believe


            Db5   Eb5   Bb5      Db5   Eb5   Bb5
This is the story of my life
            Db5   Eb5   Bb5
This is the story of my life

BRIDGE 
   Eb5                 Gb5               Bb5               Ab5
D|-------------------|-----------------|-----------------|-----------------|
A|-------------------|-----------------|-----------------|-----------------|
F|-------------------|-----------------|-----------------|-----------------|
C|-------1-------1---|-----4-------4---|-----8-------8---|-----6-------6---|
G|-------------------|-----------------|-----------------|-----------------|
C|-0-1-1---1-1-1---1-|-4-4---4-4-4---4-|-8-8---8-8-8---8-|-6-6---6-6-6---6-|

Eb5       Gb5                Bb5                 Ab5
    And I swear to god, I've found myself in the end
Eb5       Gb5                Bb5                 Ab5
    And I swear to god, I've found myself in the end
Eb5       Gb5                Bb5                 Ab5
    And I swear to god, I've found myself in the end
Eb5       Gb5                Bb5                 Ab5
    And I swear to god, I've found myself in the end
       Eb5         Gb5         Bb5         Ab5
In the end, in the end, in the end, in the end
 

Db5   Eb5   Bb5

            Db5   Eb5   Bb5      Db5   Eb5   Bb5
This is the story of my life
            Db5   Eb5   Bb5      Db5   Eb5   Bb5
This is the story of my life
            Db5   Eb5   Bb5      Db5   Eb5   Bb5
This is the story of my life
              Db5    Eb5  Bb5
These are the lies I have created
            Db5   Eb5   Bb5
This is the story of my life
              Db5    Eb5  Bb5
These are the lies I have created
Suggest correction
Give kudos to tab author, rate the tab!
1 2 3 4 5
comments
print report bad tab
guest
You may want to rate the tab now too:
select rating
Please do not post tabs as comments. Select "correction" instead!