Oops, an error
Loading. Please wait.

Story tab

version 4
version 4

Interactive

10,808 views 1 this week
2 commentsread comments
1 2 3 4 5
x 8
add to favorites
×
Save as Personal and add changes to this tab that will be seen only by you. Learn more ›
×
You can save this tab as Personal to edit and correct it or add notes. All changes will be seen only by you. Learn more »
launch autoscroll
font size
0
reset
how to read this tab
guitar tuner
edit
Autoscroll
slow
fast
+/-
esc
set tempo
stop
Difficulty
intermediate
The Story
30 Seconds To Mars

Hi this is my first time i have posted up a tab, and well this is how i play the song 
30 Seconds To Mars. Umm.. to get the right note at the right beat you should play it with 
song.. so yeh...
Enjoy! =]

Turning: Drop low E to C#

                                                         (x10)
E|-----------------------------|------------------------------|
B|-----------------------------|------------------------------|
G|-----------------------------|------------------------------|
D|-----4-------6---------------|-----4-------6----------------|
A|-2-2---2-4-4---4-----6---4-6-|-2-2---2-4-4---4----6-----6-4-|
C|-----------------7-7---7-----|----------------7-7---7-7-----|

E|--------------------------|---------------------------------|
B|--------------------------|---------------------------------|
G|--------------------------|-8--8--8--8--8--8--8--8----------|
D|--9--9--9--9--9--9--9--9--|-9--9--9--9--9--9--9--9----------|
A|--7--7--7--7--7--7--7--7--|-7--7--7--7--7--7--7--7----------|
C|--------------------------|---------------------------------|
short pause (8 bars rest, 4 by 4 beat)
chorus starts
                                                         (x2)
E|-----------------------------|------------------------------|
B|-----------------------------|------------------------------|
G|-----------------------------|------------------------------|
D|-----4-------6---------------|-----4-------6----------------|
A|-2-2---2-4-4---4-----6---4-6-|-2-2---2-4-4---4----6-----6-4-|
C|-----------------7-7---7-----|----------------7-7---7-7-----|

                                               (x4)
E|------------|-----------|-----------|-----------|
B|------------|-----------|-----------|-----------|
G|------------|-----------|-----------|-----------|
D|------------|---2-----2-|---6-----6-|---4-----4-|
A|----4-----4-|-----------|-----------|-----------|
C|--0---0-0---|-3---3-3---|-7---7-7---|-5---5-5---|


E|------------|-----------|-----------|-----------|
B|------------|-----------|-----------|-----------|
G|------------|-----------|---------8-|-----------|
D|------------|---2-----2-|---6-------|-----4-----|
A|----4-----4-|-----------|-----------|-----------|
C|--0---0-0---|-3---3-3---|-7---7-7---|-5-5-------|
NOTE: let the last note ring for the pause

                                                           (x4)
E|-----------------------------|------------------------------|
B|-----------------------------|------------------------------|
G|-----------------------------|------------------------------|
D|-----4-------6---------------|-----4-------6----------------|
A|-2-2---2-4-4---4-----6---4-6-|-2-2---2-4-4---4----6-----6-4-|
C|-----------------7-7---7-----|----------------7-7---7-7-----|


E|-----------------------------|
B|-----------------------------|
G|-----------------------------|
D|----4-------6----------------|
A|2-2---2-4-4---4----6---------|
C|---------------7-7---7-------|

And thats how i play the song from 30 Seconds To Mars
If theres anything wrong with it, email me at nemigumen@hotmail.com
and yeh...

            
            
Suggest correction
Creating personal tab
Creating personal tab
You can edit any tab online and save it as your Personal.

You can edit, replace or remove any tab part or add personal notes – all changes will be seen only by you.

Personal tabs can be accessed anytime from any device, even offline.
Learn more »
comments
print report bad tab
2 comments total.
0 reply
sayainguitar 10 Sep 30, 2008 09:01 AM

and yeh....

0 reply
ambient203 233 Dec 13, 2009 07:32 PM

hey, just in case you're wondering, this song is in drop C...

guest
Wanna post a correction for this tab? Suggest correction