Oops, an error
Loading. Please wait.
2,517 views 1 this week
no commentswrite comment
1 2 3 4 5
1 last vote to show rating
add to favorites
×
Save as Personal and add changes to this tab that will be seen only by you. Learn more ›
×
You can save this tab as Personal to edit and correct it or add notes. All changes will be seen only by you. Learn more »
launch autoscroll
font size
0
reset
how to read this tab
guitar tuner
backing track
0:00
0:00
edit
Autoscroll
slow
fast
+/-
esc
set tempo
stop
Author
Difficulty
Hi Echelon:) sorry for bad English, I speak Spanish.

This song is made one tone lower than the normal song, cuz this is on acoustic, all you 
need is listen the song.

Hola #Echelon esta canción en acústica fue hecha en un tono más bajo que la canción 
normal, es muy fácil. Está canción es para 2 guitarras, para eso sirve los acordes arriba de 
la letra de la canción

Acordes usados: #Am, C, Dm, Am, G, Em


Intro:

 Bb             C             Dm            Am

e---------------------------------------------------------------------|
B---------------------------------------------------------------------|
G---------------------------------------------------------------------|
D--3--3---(x4)--5--5----(x4)--7--7----(x5)--2--2----(x5)--------------|PAUSE
A--1-----1------3-----3-------5-----5-------0-----0-------------------|
E---------------------------------------------------------------------|

later

Interlude

 Bb                   C
    What if I wanted to break laugh it all off in your


e--------------------------------------------------------------------|
B--------------------------------------------------------------------|
G--------------------------------------------------------------------|
D--3--x5------------5--x5--------------------------------------------|
A--1----------------3------------------------------------------------|
E--------------------------------------------------------------------|
 Dm             Am
    face What would you do?

e--------------------------------------------------------------------|
B--------------------------------------------------------------------|
G--------------------------------------------------------------------|
D--7--x5--------2--x5------------------------------------------------|
A--5------------0----------------------------------------------------|
E--------------------------------------------------------------------|

Repeat
Bb                      C
     What if I fell to the floor
                        Dm
Couldn't take all this anymore
            Am
What would you do?

Chorus

Bb              C
 Come break me down Bury me, bury me
Dm                Am
I am finished with you


Then...
Luego...


 Bb                                 C
         (x2)   What if I wanted to fight
e----------------------------|
B----------------------------|
G--10--7---------------------|   (x4)
D-----------8--7--8---7------|
A----------------------------|
E----------------------------|


                                        Dm
         (x2)    Beg for the rest of my life

e--------------------|
B--------------------|
G-----------10--10---|    (x4)
D--7--8--7-----------|
A--------------------|
E--------------------|


                              Am
                What would you do?

e----------------------------|
B----------------------------|
G--10--7---------------------|   (x4)
D-----------8--7--8---7------|
A----------------------------|
E----------------------------|



e--------------------|
B--------------------|
G-----------10--10---|    (x2)
D--7--8--7-----------|
A--------------------|
E--------------------|



e---------------------------------------|
B------------8---8---------------10--10-|
G---------------------------------------|
D--7--8--7-------------7--8--7----------|
A---------------------------------------|
E---------------------------------------|

  Bb                    C
You say you wanted more What are you waiting for?


e--------------------------------------------------|
B--------------------------------------------------|
G--------------------------------------------------|
D--3------------------5----------------------------|
A--1------------------3----------------------------|
E--------------------------------------------------|

  Dm                   Am
  I'm not running from you


e-------------------------------------|
B-------------------------------------|
G-------------------------------------|
D---7------------------2--------------|
A---5------------------0--------------|
E-------------------------------------|

   Bb          C
Come break me down, bury me, bury me

e---------------------------------------------|
B---------------------------------------------|
G---------------------------------------------|
D--3--(x5)----5--(x5)-------------------------|
A--1----------3-------------------------------|
E---------------------------------------------|

 Dm    Em           Am  Bb  C  Em

  I am finished with you


e-----------------------------------------------------|
B-----------------------------------------------------|
G-----------------------------------------------------|
D-7-(x2)--9--(x3)-----2-(x2)-3-(x2)-5-(x2)-9-x(2)-----|
A-5-------7-----------0------1------3------7----------|
E-----------------------------------------------------|

Repeat interlude

Bb         C
Look in my eyes
              Dm
You're killing me, killing me
            Am
All I wanted was you


G             Am      Dm
I tried to be someone else But nothing seemed to

e--0-----------0--------x---------x---------x--------x-------|
B--0-----------0--------x---------x---------x--------x-------|
G--4-----------2--------9---9-----9---9-----9---9----9--9----|
D--5-----------2--------9-----9---9------9--9-----9--9----9--|
A--5-----------0--------7---------7---------7--------7-------|
E--3-----------0--------x---------x---------x--------x-------|

  Bb      C         Dm     Am   Bb      C
change I know now, this is who I really am

e--------------------------------------------------|
B--------------------------------------------------|
G--------------------------------------------------|
D-3-------5----------7------2-----3------5---------|
A-1-------3----------5------0-----1------3---------|
E--------------------------------------------------|


Bb                C      Dm
inside. Finally found myself fighting for a
Bb         C         Dm         Am
chance. I know now, this is who I really am.


e---0---------------x--------------------------------------|
B---0---------------x--------------------------------------|
G---4----(x5)-------x------(x4)----------------     -------| x3
D---5---------------8--------------------------------------|
A---5---------------8--------------------------------------|
E---3---------------6--------------------------------------|


  OR....
  O...

e---0--------------x---------------------------------------|
B---0--------------x---------------------------------------|
G---4----(x5)------3-------(x4)----------------     -------| x3
D---5--------------3---------------------------------------|
A---5--------------1---------------------------------------|
E---3--------------x---------------------------------------|


Then...
Luego...

e--5-5-5-5-5-5-3-3-3-3-1-1-1-----------|
B---3-3-3-3-3-3-3-3-3-3-3-3-3----------|
G--------------------------------------|
D--------------------------------------|
A--------------------------------------|
E--------------------------------------|

IF YOU WANT YOU CAN DO IT THIS.
SI QUIERES PUEDES HACER ESTA PARTE.

e----------------------------------------8------------|
B--10----8-----10-----8-----10-----8-----------10-----|
G-----------------------------------------------------|
D-----------------------------------------------------|
A-----------------------------------------------------|
E-----------------------------------------------------|


Come break me down
Bury me, bury me
I am finished with you, you, you.
Look in my eyes
You're killing me, killing me
All I wanted was you

End the song with Bb
Termina la canción con #A ó Bb


Thanks :)
Gracias :)

Si ves que un acorde está incorrecto hazmelo saber.

            
            
Suggest correction
Creating personal tab
Creating personal tab
You can edit any tab online and save it as your Personal.

You can edit, replace or remove any tab part or add personal notes – all changes will be seen only by you.

Personal tabs can be accessed anytime from any device, even offline.
Learn more »
Give kudos to tab author, rate the tab!
1 2 3 4 5
comments
print report bad tab
guest
You may want to rate the tab now too:
select rating
Wanna post a correction for this tab? Suggest correction