Oops, an error
Loading. Please wait.
We have an official The Kill tab made by UG professional guitarists. Check out the tab »
×
73,787 views 87 this week
13 commentsread comments
1 2 3 4 5
x 39
add to favorites
×
Save as Personal and add changes to this tab that will be seen only by you. Learn more ›
×
You can save this tab as Personal to edit and correct it or add notes. All changes will be seen only by you. Learn more »
launch autoscroll
font size
0
reset
guitar tuner
backing track
0:00
0:00
edit
Autoscroll
slow
fast
+/-
esc
set tempo
stop
Author
The Kill
30 Seconds To Mars
Standard Tuning

Verse 1 (00:22)

G|-------------------------------------------------------------------------------------------|
D|-------------------------------------------------------------------------------------------|
A|-3-3-3-3-3-3-3-3-3-3-3-3-3-3-3-5-5-5-5-5-5-5-5-5-5-5-5-5-5-5-7-7-7-7-7-7-7-7-7-7-7-7-7-7-7-|
E|-------------------------------------------------------------------------------------------|

G|-------------------------------|
D|-------------------------------|
A|-2-222-2-222\14-14-14-14-14-14-|
E|-------------------------------|

Chorus 1 (00:37)

G|-----------------------------------------------------------------------|
D|-----------------------------------------------------------------------|
A|-3-3-3-3-3-3-3-3-5-5-5-5-5-5-5-5/9999-7-7-7-7-7-7-7-7-9-9-9-9-10101010-|
E|-----------------------------------------------------------------------|

G|-----------------------|
D|-----------------------|
A|-2222/14141414/2222/14-|
E|-----------------------|

Verse 2 (00:53)

G|-------------------------------------------------------------|
D|-------------------------------------------------------------|
A|-3-3-3-3-3-3-3-3-3-3-3-3-3-3-3-5-5-5-5-5-5-5-5-5-5-5-5-5-5-5-|
E|-------------------------------------------------------------|

G|----------------------------------------------------|
D|----------------------------------------------------|
A|-7-7-7-7-7-7-7-7-7-7-7-7-7-7-7-2-2222-2-2222-2-2222-|
E|----------------------------------------------------|

G|-------------------------------------------------------------|
D|-------------------------------------------------------------|
A|-3-3-3-3-3-3-3-3-3-3-3-3-3-3-3-5-5-5-5-5-5-5-5-5-5-5-5-5-5-5-|
E|-------------------------------------------------------------|

G|---------------------------------------------------------------|
D|---------------------------------------------------------------|
A|-7-7-7-7-7-7-7-7-7-7-7-7-7-7-7-2-222/14-141414-2-222/14-141414-|
E|---------------------------------------------------------------|

Chorus 2 (1:24)
                                                
G|-----------------------------------------------------------------------|
D|-----------------------------------------------------------------------|
A|-3-3-3-3-3-3-3-3-5-5-5-5-5-5-5-5/9999-7-7-7-7-7-7-7-7-2222222222222222-|
E|-----------------------------------------------------------------------|

G|-----------------------------------------------------------------------|
D|-----------------------------------------------------------------------|
A|-3-3-3-3-3-3-3-3-5-5-5-5-5-5-5-5/9999-7-7-7-7-7-7-7-7-2222222222222222-|
E|-----------------------------------------------------------------------|

G|-------------------------------|
D|-------------------------------|
A|-2-22/14-141414-2-22/14-141414-|
E|-------------------------------|

Bridge (1:56)

G|----------------------------------------------------------|
D|----------------------------------------------------------|
A|-0-0-0-0-0-0-0-0-22222222-7-7-7-7-7-7-7-7-7-7-7-7-7-7-7-7-|
E|----------------------------------------------------------|

G|---------------------------------------------------------------------------|
D|---------------------------------------------------------------------------|
A|-3-3-3-3-3-3-3-3-5-5-5-5-5-5-5-5-7-7-7-7-7-9-9-9-9-9-1010101010-1212121212-|
E|---------------------------------------------------------------------------|

G|----------------------------------------------|
D|----------------------------------------------|
A|-3-3-3-3-3-3-3-3-2222/17171717171717\77777777-|
E|----------------------------------------------|

G|---------------------------------------------------------------|
D|---------------------------------------------------------------|
A|-3-3-3-3-3-3-3-3-5-5-5-5-5-5-5-5-7-7-7-7-7-7-7-7-7-7-7-7-7-7-7-|
E|---------------------------------------------------------------|

Break (2:28)
                X3
G|-----------------||-------------------------|
D|-----------------||-------------------------|
A|-3-3-3-3-3-3-3-3-||-7-7-7-7-7-7-5-5-5-5-5-5-|
E|-----------------||-------------------------|

Chorus 3 (2:47)

G|--------------------------------------------------------------------|
D|--------------------------------------------------------------------|
A|-3-3-3-3-3-3-3-3-5-5-5-5-5-5-5-5/9999-7-7-7-7-7-7-7-7/9999-10101010-|
E|--------------------------------------------------------------------|

G|---------------------------------|
D|---------------------------------|
A|-2-222/14-141414\2-222/14-141414-|
E|---------------------------------|

G|--------------------------------------------------------------------------------------|
D|--------------------------------------------------------------------------------------|
A|-3-3-3-3-3-3-3-3-5-5-5-5-5-5-5-5/9999-7-7-7-7-7-7-7-7/1414-1414/22-22/1414-1414/22-22-|
E|--------------------------------------------------------------------------------------|

G|-------------------------------------------------------------------------------------------|
D|-------------------------------------------------------------------------------------------|
A|-3-3-3-3-3-3-3-3-3-3-3-3-3-3-3-5-5-5-5-5-5-5-5-5-5-5-5-5-5-5-7-7-7-7-7-7-7-7-7-7-7-7-7-7-7-|
E|-------------------------------------------------------------------------------------------|

G|--------------------------------|
D|--------------------------------|
A|1414-1414\22-22/1414-1414\22-22-|
E|--------------------------------|



************************************

| / slide up
| \ slide down

************************************

            
            
Suggest correction
Creating personal tab
Creating personal tab
You can edit any tab online and save it as your Personal.

You can edit, replace or remove any tab part or add personal notes – all changes will be seen only by you.

Personal tabs can be accessed anytime from any device, even offline.
Learn more »
comments
print report bad tab
13 comments total. Showing first comments.
+3 reply
ColinR 10 Jul 30, 2006 11:16 AM

The time for the bridge should be about 1:56. Other than that, great tab!

+3 reply
HiMyNameIsMatt 190 Jun 17, 2007 01:06 PM

timings are off but that dont matter =]

+3 reply
LP_30S_BB_DML 10 Oct 27, 2007 11:30 PM

Nice tab!, better than all the other ones out there! great job!

guest
You may want to rate the tab now too:
select rating
Wanna post a correction for this tab? Suggest correction