Oops, an error
Loading. Please wait.
We have an official The Kill tab made by UG professional guitarists. Check out the tab »
×
8,964 views 1 this week
1 commentread comment
1 2 3 4 5
x 6
add to favorites
×
Save as Personal and add changes to this tab that will be seen only by you. Learn more ›
×
You can save this tab as Personal to edit and correct it or add notes. All changes will be seen only by you. Learn more »
launch autoscroll
font size
0
reset
guitar tuner
backing track
0:00
0:00
edit
Autoscroll
slow
fast
+/-
esc
set tempo
stop
Author
Difficulty
Title: The Kill
Artist: 30 Seconds To Mars
Album: A Beautiful Lie
Tempo = 94
Matt (Bass)




G |-------------|-------------|-------------|-------------|-------------|
D |-------------|-------------|-------------|-------------|-------------|
A |-------------|-------------|-------------|-------------|-------------|
E |-------------|-------------|-------------|-------------|-------------|


-------------|-------------|-------------|
-------------|-------------|-------------|
-------------|-------------|-------------|
-------------|-------------|-------------|

              What if I fell to the floor ...
----------------------------------------|
----------------------------------------|
--3-----3--3--3--3--3-----3--3--3--3----|
----------------------------------------|


----------------------------------------|
----------------------------------------|
--3-----3--3--3--3--3-----3--3--3--3----|
----------------------------------------|


----------------------------------------|
----------------------------------------|
--5-----5--5--5--5--5-----5--5--5--5----|
----------------------------------------|


----------------------------------------|
----------------------------------------|
--5-----5--5--5--5--5-----5--5--5--5----|
----------------------------------------|


----------------------------------------|
----------------------------------------|
--7-----7--7--7--7--7-----7--7--7--7----|
----------------------------------------|


----------------------------------------|
----------------------------------------|
--7-----7--7--7--7--7-----7--7--7--7----|
----------------------------------------|


----------------------------------------|
----------------------------------------|
--2-----2--2--2--2--2-----2--2--2--2s---|
----------------------------------------|


----------------------------------------|
----------------------------------------|
--14-14-14-14-14-14-14-14-14-14-14-14---|
----------------------------------------|

    CHORUS
----------------------------------------|
----------------------------------------|
--3-----3--3--3--3--3-----3--3--3--3----|
----------------------------------------|


----------------------------------------|
----------------------------------------|
--3-----3--3--3--3--3-----3--3--3--3----|
----------------------------------------|


----------------------------------------|
----------------------------------------|
--5-----5--5--5--5--5-----5--5--5--5----|
----------------------------------------|


----------------------------------------|
----------------------------------------|
--5-----5--5--5--5--5-----5--5--5--5----|
----------------------------------------|


----------------------------------------|
----------------------------------------|
--7-----7--7--7--7--7-----7--7--7--7----|
----------------------------------------|


----------------------------------------|-------------------------------------|
----------------------------------------|-------------------------------------|
--9-----9--9--9--9--10----10-10-10-10---|--2--2--2--2--2-----2--14-14-14-14s--|
----------------------------------------|-------------------------------------|


----------------------------------------|
----------------------------------------|
--0--2--2--2--2--2--2--2----------------|
----------------------------------------|

                    VERSE 2
----------------------------------------|
----------------------------------------|
--3-----3--3--3--3--3-----3--3--3--3----|
----------------------------------------|


----------------------------------------|
----------------------------------------|
--3-----3--3--3--3--3-----3--3--3--3----|
----------------------------------------|


----------------------------------------|
----------------------------------------|
--5-----5--5--5--5--5-----5--5--5--5----|
----------------------------------------|


----------------------------------------|
----------------------------------------|
--5-----5--5--5--5--5-----5--5--5--5----|
----------------------------------------|


----------------------------------------|
----------------------------------------|
--7-----7--7--7--7--7-----7--7--7--7----|
----------------------------------------|


----------------------------------------|
----------------------------------------|
--7-----7--7--7--7--7-----7--7--7--7----|
----------------------------------------|


----------------------------------------|
----------------------------------------|
--2-----2--2--2--2--2-----2--2--2--2----|
----------------------------------------|


----------------------------------------|
----------------------------------------|
--2-----2--2--2--2--2-----0--0--0--0----|
----------------------------------------|

     You say you wanted more...
--------------------5-------------------|
----------------------------------------|
--3-----3--3--3--3--3-----3--3--3--3----|
----------------------------------------|


--------------------5-------------------|
----------------------------------------|
--3-----3--3--3--3--3-----3--3--3--3----|
----------------------------------------|


--------------------7-------------------|
----------------------------------------|
--5-----5--5--5--5--5-----5--5--5--5----|
----------------------------------------|


--------------------7-------------------|
----------------------------------------|
--5-----5--5--5--5--5-----5--5--5--5----|
----------------------------------------|


--------------------9-------------------|
----------------------------------------|
--7-----7--7--7--7--7-----7--7--7--7----|
----------------------------------------|


--------------------9-------------------|
----------------------------------------|
--7-----7--7--7--7--7-----7--7--7--7----|
----------------------------------------|


----------------------------------------|
----------------------------------------|
--2-----2--------2s-14----14----14------|
----------------------------------------|


----------------------------------------|
----------------------------------------|
--2--2-----2s----2-----14-14-14-14-14---|
----------------------------------------|

         CHORUS 2
----------------------------------------|
----------------------------------------|
--3-----3--3--3--3--3-----3--3--3--3----|
----------------------------------------|


----------------------------------------|
----------------------------------------|
--3-----3--3--3--3--3-----3--3--3--3----|
----------------------------------------|


----------------------------------------|
----------------------------------------|
--5-----5--5--5--5--5-----5--5--5--5----|
----------------------------------------|


----------------------------------------|
----------------------------------------|
--5-----5--5--5--5--5-----5--5--5--5----|
----------------------------------------|


----------------------------------------|
----------------------------------------|
--7-----7--7--7--7--7-----7--7--7--7----|
----------------------------------------|


----------------------------------------|
----------------------------------------|
--7-----7--7--7--10-10-10-10-10-10------|
----------------------------------------|


----------------------------------------|----------------------------|
----------------------------------------|----------------------------|
--2-----2--------2--2-----2-----2s------|--14-14-14-14-14-14-14-14---|
----------------------------------------|----------------------------|


----------------------------------------|
----------------------------------------|
--3-----3--3--3--3--3-----3--3--3--3----|
----------------------------------------|


----------------------------------------|
----------------------------------------|
--3-----3--3--3--3--3-----3--3--3--3----|
----------------------------------------|


----------------------------------------|
----------------------------------------|
--5-----5--5--5--5--5-----5--5--5--5----|
----------------------------------------|


----------------------------------------|
--7--7--7--5--5--5--4--4--4-------------|
-----------------------------5--5--5----|
----------------------------------------|


----------------------------------------|
----------------------------------------|
--7-----7--7--7--7--7-----7--7--7--7----|
----------------------------------------|


----------------------------------------|
----------------------------------------|
--7-----7--7--7--7--7-----7--7--7--7s---|
----------------------------------------|


--------------------------------------------------------------------------------|
--------------------------------------------------------------------------------|
--2-----------2--------------------------2-----------------------2s-------14----|
--------------------------------------------------------------------------------|


--------------------------------------------------------------------------------|
--------------------------------------------------------------------------------|
------14----------------------14----------------------14------------------------|
--------------------------------------------------------------------------------|


|----------------------------------------|
|----------------------------------------|
|--2--2-----2s----2--14-14-12-12---------|
|--------------------------------12------|

BRIDGE
----------------------------------------------------|
----------------------------------------------------|
--0-----0--0--0--0--0-----0--0--0-------------------|
----------------------------------------------------|


----------------------------------------------------|
----------------------------------------------------|
--2-----2--2--2--2--2-----2--2--2-------------------|
----------------------------------------------------|


----------------------------------------|
----------------------------------------|
----------------------------------------|
--0-----0--0--0--0--0-----0--0--0--0----|


----------------------------------------|
----------------------------------------|
----------------------------------------|
--0-----0--0--0--0--0-----0--0--0--0----|


-------------------------------------------------|
-------------------------------------------------|
--3-----3--3--3--3--3-----3--3--3--3-------------|
-------------------------------------------------|


----------------------------------------------------|
----------------------------------------------------|
--5-----5--5--5--5--5-----5--5--5-------------------|
----------------------------------------------------|


----------------------------------------|
----------------------------------------|
--7-----7--x--x--x--9-----x--x--x--x----|
----------------------------------------|


----------------------------------------|
----------------------------------------|
--10----x--x--x-----12----12-12-12-12s--|
----------------------------------------|


----------------------------------------|
----------------------------------------|
--15----15-15-15-15-15----15----15------|
----------------------------------------|


----------------------------------------|
----------------------------------------|
--2-----2--2--2--2s-17-17-17-17-17-17---|
----------------------------------------|


----------------------------------------|
----------------------------------------|
--7-----7--7--7--7--7-----7--7--7--7----|
----------------------------------------|


----------------------------------------|
----------------------------------------|
--7-----7--7--7--7--7-----7--7--7--7----|
----------------------------------------|


----------------------------------------|
----------------------------------------|
--3-----3--3--3--3--3-----3--3--3--3----|
----------------------------------------|


----------------------------------------|
----------------------------------------|
--5-----5--5--5--5--5-----5--5--5--5----|
----------------------------------------|


----------------------------------------|
----------------------------------------|
--7--7--x--x--x-----7--7--x-x-----------|
----------------------------------------|


----------------------------------------|----------------------|
----------------------------------------|----------------------|
--7--7-----------------7-----7-----7s---|----------------------|
----------------------------------------|----------------------|


----------------------------------------|----------------------|
----------------------------------------|----------------------|
----------------------------------------|----------------------|
----------------------------------------|----------------------|


----------------------------------------|----------------------|
----------------------------------------|----------------------|
----------------------------------------|----------------------|
----------------------------------------|----------------------|


----------------------------------------|
----------------------------------------|
----------------------------------------|
----------------------------------------|


----------------------------------------|
----------------------------------------|
--14----14-14-14-14-14----14-14-14-14---|
----------------------------------------|


----------------------------------------|
----------------------------------------|
--12----12-12-12-12-10-10-10-10---------|
----------------------------------------|


----------------------------------------|
----------------------------------------|
----------------------------------------|
----------------------------------------|


----------------------------------------|
----------------------------------------|
----------------------------------------|
----------------------------------------|

                 CHORUS 3
----------------------------------------|
----------------------------------------|
--3-----3--3--3--3--3-----3--3--3--3----|
----------------------------------------|


----------------------------------------|
----------------------------------------|
--3-----3--3--3--3--3-----3--3--3--3----|
----------------------------------------|


----------------------------------------|
----------------------------------------|
--5-----5--5--5--5--5-----5--5--5--5----|
----------------------------------------|


----------------------------------------|
----------------------------------------|
--5-----5--5--5--5--5-----5--5--5--5----|
----------------------------------------|


----------------------------------------|
----------------------------------------|
--7-----7--7--7--7--7-----7--7--7--7----|
----------------------------------------|


----------------------------------------|
----------------------------------------|
--9-----9--9--9--9--10----10-10-10-10s--|
----------------------------------------|


----------------------------------------|
----------------------------------------|
--2--2--2s-2-----2--14-14-14-14----14---|
----------------------------------------|


----------------------------------------|
----------------------------------------|
--2--2--2s-2-----2--14-14-14-14-14-14---|
----------------------------------------|


----------------------------------------|
----------------------------------------|
--3-----3--3--3--3--3-----3--3--3--3----|
----------------------------------------|


----------------------------------------|
----------------------------------------|
--3-----3--3--3--3--3-----3--3--3--3----|
----------------------------------------|


----------------------------------------|
----------------------------------------|
--5-----5--5--5--5--5-----5--5--5--5----|
----------------------------------------|


----------------------------------------|
--7--7--7--5--5--5--4--4--4-------------|
-----------------------------5--5--5----|
----------------------------------------|


----------------------------------------|
----------------------------------------|
--7-----7--7--7--7--7-----7--7--7--7----|
----------------------------------------|


----------------------------------------|----------------------|
----------------------------------------|----------------------|
--7-----7--7--7--7--7-----7--7--7--14s--|--14s14s---2--2-------|
----------------------------------------|----------------------|


----------------------------------------|
----------------------------------------|
--14----14s---------2-----2--2--2--2----|
----------------------------------------|


----------------------------------------|
----------------------------------------|
--3--------3--------3--------3----------|
----------------------------------------|


--------------------------------------------------------------------------------|
--------------------------------------------------------------------------------|
--3-----------------------------------3-----------------------------------3-----|
--------------------------------------------------------------------------------|


-----------------------------------------------------------------------------|
-----------------------------------------------------------------------------|
------------------3--------------------3-------------------------------------|
-----------------------------------------------------------------------------|


----------------------------------------|
----------------------------------------|
--5--------5--------5--------5----------|
----------------------------------------|


----------------------------------------|
----------------------------------------|
--5--5-----5-----5--5--5-----5--5-------|
----------------------------------------|


----------------------------------------|
----------------------------------------|
--7--------7-----x--7--------7-----x----|
----------------------------------------|


-------------------------------------------|
-------------------------------------------|
--7--------7-----x--7--7-----7-----7s------|
-------------------------------------------|


----------------------------------------|
----------------------------------------|
--14s---14-------14-2-----2--------2s---|
----------------------------------------|


----------------------------------------|
----------------------------------------|
--14----14s---14s---2-----2-----2--2----|
----------------------------------------|
Suggest correction
Creating personal tab
Creating personal tab
You can edit any tab online and save it as your Personal.

You can edit, replace or remove any tab part or add personal notes – all changes will be seen only by you.

Personal tabs can be accessed anytime from any device, even offline.
Learn more »
comments
print report bad tab
1 comment total.
0 reply
Ben Walter 52 Oct 09, 2013 05:44 PM

pretty accurate thnx!

guest
You may want to rate the tab now too:
select rating
Wanna post a correction for this tab? Suggest correction