Oops, an error
Loading. Please wait.
28,281 views 6 this week
9 commentsread comments
1 2 3 4 5
x 10
add to favorites
×
Save as Personal and add changes to this tab that will be seen only by you. Learn more ›
×
You can save this tab as Personal to edit and correct it or add notes. All changes will be seen only by you. Learn more »
launch autoscroll
font size
0
reset
how to read this tab
guitar tuner
backing track
0:00
0:00
edit
Autoscroll
slow
fast
+/-
esc
set tempo
stop
Author
Difficulty
[verse 1] Guitar 1  -2x

|-----------------------------------------------------------------|
|-------0-------0-------0-------0-------0-------0-------0-------0-|
|-----------------------------------------------------------------|
|-6---6---6---6---6---6---6---6---8---8---8---8---8---8---8---8---|
|-4-------4-------4-------4-------6-------6-------6-------6-------|
|-----------------------------------------------------------------|


-----------------------------------------------------------------|
-------0-------0-------0-------0-------0-------0-------0-------0-|
-----------------------------------------------------------------|
-10--10--10--10--10--10--10--10--5---5---5---5---5---5---5---5---|
-8-------8-------8-------8-------3-------3-------3-------3-------|
-----------------------------------------------------------------|


[verse 1] guitar 2  -2x

|-----------------------------------------------------------------|
|-----------------------------------------------------------------|
|-----------------------------------------------------------------|
|-6---6---6---6---8---8---8---8---10--10--10--10--5---5---5---5---|
|-4---4---4---4---6---6---6---6---8---8---8---8---3---3---3---3---|
|-----------------------------------------------------------------|


[Chorus 1] guitar 1

|---------------------------------------------------------|
|---------------------------------------------------------|
|-6(16x)-8(12x)-11(4x)-10(16x)-5(8x dotted quarter notes)-|
|-6(16x)-8(12x)-11(4x)-10(16x)-5(8x dotted quarter notes)-|
|-4(16x)-6(12x)-9 (4x)-8(16x) -3(8x dotted quarter notes)-|
|---------------------------------------------------------|


[Chorus 1] guitar 2

|---------------------------------------------------------------|
|---------------------------------------------------------------|
|-6 (16x) ---8 (16x) ---10 (16x) ---5 (8x dotted quarter notes)-|
|-6 (16x) ---8 (16x) ---10 (16x) ---5 (8x dotted quarter notes)-|
|-4 (16x) ---6 (16x) ---8  (16x) ---3 (8x dotted quarter notes)-|
|---------------------------------------------------------------|


[verse 2] guitar 1 -2x

|-------------    ---------     -------------     ---------|
|-8-----------    -------8-     -8-----------     -------8-|
|---8-6-5-6-5- 4x -5-6-8---  4x ---8-6-5-6-5-  4x -5-6-8---|  2x
|-------------    ---------     -------------     ---------|
|-------------    ---------     -------------     ---------|
|-------------    ---------     -------------     ---------|

-------6-     -------8-     -|
---------     ---------     -|
-5-6-8---  1x -5-6-8---  1x -|
---------     ---------     -|
---------     ---------     -|
---------     ---------     -|


[verse 2] guitar 2 -2x (softly in background, could even use thumb)

|-----------------------------------------------------------------|
|-----------------------------------------------------------------|
|-----------------------------------------------------------------|
|-6---6---6---6---8---8---8---8---10--10--10--10--5---5---5---5---|
|-4---4---4---4---6---6---6---6---8---8---8---8---3---3---3---3---|
|-----------------------------------------------------------------|


[chorus 2] guitar 1 2x same as before


[chorus 2] guitar 2 2x (but 2nd time no special ending thing)

|-------------------------------------------------------------------|
|-------------------------------------------------------------------|
|-6 (16x) ---8 (16x) ---10 (16x) ---5-5555-6-6666-8-8888-11-11111111|
|-6 (16x) ---8 (16x) ---10 (16x) ---5-5555-6-6666-8-8888-11-11111111|
|-4 (16x) ---6 (16x) ---8  (16x) ---3-3333-4-4444-6-6666-9--9-9-9-9-|
|-------------------------------------------------------------------|

[bridge] guitar 1        1:56
there is a solo here that is very hard to hear so your on your own for guitar 1

[bridge] guitar 2 2x just play the chords with the piano

|--------------------------------------|
|--------------------------------------|
|-6~----5~----3~--------6~----8----10~-|              -
|-6~----5~----3~--------6~----8----10~-| 2nd time end -10-1010 10-1010
|-4~----3~----1~--------4~----6----8~~-|              -8--8888-8--8888
|--------------------------------------|


Interlude (weird bass thingy)

|------------------------------------------------------|
|------------------------------------------------------|
|------66666------66666------66666-10101010-8888-6664--|
|------66666------66666------66666-10101010-8888-6666--|
|------44444------44444------44444-8-8-8-8--6666-4444--|
|------------------------------------------------------|


Weird Guitar Riff with weird distortion


|--------------------|
|----------------8---|
|-10-8-10-8-10-8---8-|
|--------------------|
|--------------------|
|--------------------|

Chorus 2 again the exact same but instead of just 2x its 3x

then fade with verse 2 guitar 1

            
            
Suggest correction
Creating personal tab
Creating personal tab
You can edit any tab online and save it as your Personal.

You can edit, replace or remove any tab part or add personal notes – all changes will be seen only by you.

Personal tabs can be accessed anytime from any device, even offline.
Learn more »
comments
print report bad tab
9 comments total. Showing first comments.
+1 reply
milhouse56 47 Jun 29, 2006 06:10 PM

This tab is completly wrong. it sounds like you did this 1 fret higher than it should be also the intro is wrong as well as the verse riff

0 reply
elementwigs 10 Jul 11, 2006 06:08 PM

totaly unaccurate how does that sournd right?

0 reply
stratacoaster 10 Jul 28, 2006 08:42 AM

Wrong!

guest
You may want to rate the tab now too:
select rating
Wanna post a correction for this tab? Suggest correction