Oops, an error
Loading. Please wait.

The Story Tab

version 1
version 1

Whole song

Interactive

20,817 views 24 this week
2 commentsread comments
1 2 3 4 5
x 6
add to favorites
launch autoscroll
font size
0
reset
how to read this tab
guitar tuner
×
Best way to learn
"The Story"
Autoscroll
slow
fast
+/-
esc
set tempo
stop
Difficulty
Tuning
novice
D# G# C# F# A# D#
tune down half step
                        
[Intro/Verse 1]
eb|---------------------------------------|
Bb|---------------------------------------|
Gb|---------------------------------------|
Db|-----5-------7-------------------------|
Ab|—3-3---3/5-5---5----------7-----5---7--|
D#|----------------------5-5---5-5---5----|

eb|----------------------------------------|
Bb|----------------------------------------|
Gb|----------------------------------------|
Db|-----5-------7--------------------------|
Ab|—3-3---3/5-5---5----------7---------7-5-|
D#|----------------------5-5---5-5-5-5-----|

[Chorus]
eb|---------------------------------------------------|
Bb|-13-13-13-13–-12–-10-10--------13------------------|
Gb|---------------------------------------------------|
Db|----------------------------------10-10-10–-9-7-7--|
G#|---------------------------------------------------|
D#|---------------------------------------------------|

eb|-----------------------------------------------|
Bb|–10–12-13-------------12-13-13-----------------|
Gb|-----------------------------------------------|
Db|------------9-10-12----------------------------|
Ab|—----------------------------------------------|
D#|-----------------------------------------------|

eb|---------------------------------------------------|
Bb|-13-13-13-13–-12–-10-10--------13------------------|
Gb|---------------------------------------------------|
Db|----------------------------------10-10-10–-9-7-7--|
G#|---------------------------------------------------|
D#|---------------------------------------------------|

eb|-----------------------------------------------|
Bb|–10–12-13-------------12-13-13-----------------|
Gb|-----------------------------------------------|
Db|------------9-10-12----------------------------|
Ab|—----------------------------------------------|
D#|-----------------------------------------------|

eb|-----------------------------------------------|
Bb|–13-13-------66666666-5555555------------------|
Gb|-----------------------------------------------|
Db|-----------------------------------------------|
Ab|—----------------------------------------------|
D#|-----------------------------------------------|

[Verse 2]
eb|–17------------------17---------------------------|
Bb|–---17------------------17---------10/17----------|
Gb|-------14\-----------------14\--------------------|
Db|--------------------------------------------------|
Ab|—-------------------------------------------------|
D#|--------------------------------------------------|

[Chorus]
eb|---------------------------------------------------|
Bb|-13-13-13-13–-12–-10-10--------13------------------|
Gb|---------------------------------------------------|
Db|----------------------------------10-10-10–-9-7-7--|
G#|---------------------------------------------------|
D#|---------------------------------------------------|

eb|-----------------------------------------------|
Bb|–10–12-13-------------12-13-13-----------------|
Gb|-----------------------------------------------|
Db|------------9-10-12----------------------------|
Ab|—----------------------------------------------|
D#|-----------------------------------------------|

eb|---------------------------------------------------|
Bb|-13-13-13-13–-12–-10-10--------13------------------|
Gb|---------------------------------------------------|
Db|----------------------------------10-10-10–-9-7-7--|
G#|---------------------------------------------------|
D#|---------------------------------------------------|

eb|-----------------------------------------------|
Bb|–10–12-13-------------12-13-13-----------------|
Gb|-----------------------------------------------|
Db|------------9-10-12----------------------------|
Ab|—----------------------------------------------|
D#|-----------------------------------------------|

eb|----------------------|
Bb|–---------------------|
Gb|----9-----------------|
Db|----9--(x15)-approx.--|
Ab|----7-----------------|
D#|----------------------|

[Bridge]
eb|---------------------------------------------------------------|
Bb|–--------------------------------------------------------------|
Gb|---------------------------------------------------------------|
Db|-------12------3------3------7------7------5------5--------12--|
Ab|-—-—12-------3------3------7------7------5------5-------12-----|
D#|–10--------1------1------5------5------3------3------10--------| (x6)

[Outro]
eb|----------------------------------------------------------------------|
Bb|–-13-13-13-13–-12--10-10----13-13-------------------------------------|
Gb|----------------------------------------------------------------------|
Db|----------------------------------10-10--9-10-12–-9-10-12–-9-10-12----|
Ab|—---------------------------------------------------------------------|
D#|----------------------------------------------------------------------|

eb|---------------------------------------------------------------|
Bb|–--------------------------------------------------------------|
Gb|---------------------------------------------------------------|
Db|–9-10-7-7-7-7----10-10-10-10–-9-10-12----10-10-10-10–-9-10-12--|
Ab|—--------------------------------------------------------------|
D#|---------------------------------------------------------------|

eb|-----------------------------------------------------|
Bb|–-------------------------------------10-10-10-------|
Gb|-----------------------------------------------------|
Db|-----------------------------------------------------|
Ab|—-10-12-14—--12-14-12----10-12-7---------------------|
D#|-----------------------------------------------------|

eb|------------------------------------------|
Bb|------------------------------------------|
Gb|------------------------------------------|
Db|-----5-------7----------------------------|
Ab|—3-3---3/5-5---5----------7---------------|
D#|----------------------5-5---5-5-----------|



************************************

| b  Bend
| /  Slide up
| \  Slide down
| #  
| (x 
| )  
| approx. 
| – 
| — 

************************************
Suggest correction
comments
print report bad tab
2 comments total.
-1 reply
RandyRhoadsFan4 53 Jun 13, 2010 12:55 PM

Instead of
eb ---------------------------------------|
Bb ---------------------------------------|
Gb ---------------------------------------|
Db -----5-------7-------------------------|
Ab —3-3---3/5-5---5----------7-----5---7--|
Eb ----------------------5-5---5-5---5----|

eb ----------------------------------------|
Bb ----------------------------------------|
Gb ----------------------------------------|
Db -----5-------7--------------------------|
Ab —3-3---3/5-5---5----------7---------7-5-|
Eb ----------------------5-5---5-5-5-5-----|

it should be
eb ----------------------------------|
Bb ----------------------------------|
Gb ----------------------------------|
Db -----5-------7--------------------|
Ab —3-3---3/5-5---------7-----5---7--|
Eb ---------------4-5-5---5-5---5----|

eb -----------------------------------|
Bb -----------------------------------|
Gb -----------------------------------|
Db -----5-------7---------------------|
Ab —3-3---3/5-5---------7---------7-5-|
Eb ---------------4-5-5---5-5-5-5-----|

in the intro. Same sort of thing with the last line of the
Outro.

+1 reply
chrisv54 10 Nov 27, 2013 05:25 PM

instead of flat tuning, why don't you just do standard tuning and lower all the numbers by one, it's the same thing but would make it easier than retuning just to play something you could play in standard

guest
You may want to rate the tab now too:
select rating
Wanna post a correction for this tab? Suggest correction