Oops, an error
Loading. Please wait.
We have an official This Is War tab made by UG professional guitarists. Check out the tab »
×
26,320 views 3 this week
5 commentsread comments
1 2 3 4 5
x 22
add to favorites
×
Save as Personal and add changes to this tab that will be seen only by you. Learn more ›
×
You can save this tab as Personal to edit and correct it or add notes. All changes will be seen only by you. Learn more »
launch autoscroll
font size
0
reset
guitar tuner
backing track
0:00
0:00
edit
Autoscroll
slow
fast
+/-
esc
set tempo
stop
Difficulty
intermediate
Standard tuning
\ = slide up
This is the easiest way to play the song in my opinion, just move your hand quickly :D
Tell me what you think! Anything wrong?:

(I dont know if you're actually meant to play this first part, but it makes the
intro more interesting for you :D)
0:33
Intro
G|----------------------------------88888-----------------------------------------|
D|----8-8-8-----6-6-6-----4-4-4---------------8-8-8-----6-6-6-----4-4-4----6-6-6--|
A|-666-----------------222-----------------666-----------------222------444-------|  x3
E|-----------222-----------------444-----------------222--------------------------|


1:09
Pre-chorus:
G|---4-4-----------------------------4-4----------------------------|
D|--4---4-------4------44443336434--4---4--------4------444433333\11|<--not 100% certain about the
A|22-----2-----2-244444-----------22-----2------2-244444------------|  6434 part, but it sounds
E|------------------------------------------------------------------|   close enough...


1:21
Chorus:
G|----------------------------------------------------------------|
D|----------------------------------------------------------------|
A|9999999999999999888888888888888866666666666699992222222222224444|
E|----------------------------------------------------------------|

G|------------------------------------------------------------------|
D|------------------------------------------------------------------|
A|999999998888(13x4)444444444444888866666666888899992222222222224444|
E|------------------------------------------------------------------|


1:45
???
G|----------------------------------88888-----------------------------------------|
D|----8-8-8-----6-6-6-----4-4-4---------------8-8-8-----6-6-6-----4-4-4----6-6-6--|
A|-666-----------------222-----------------666-----------------222------444-------|  x3
E|-----------222-----------------444-----------------222--------------------------|
???


2:21
Pre-chorus:
G|---4-4-----------------------------4-4-----------------------------|
D|--4---4-------4------44443336434--4---4--------4------444433333/11-|
A|22-----2-----2-244444-----------22-----2------2-244444-------------|
E|-------------------------------------------------------------------|


2:33
Chorus:
G|----------------------------------------------------------------|
D|----------------------------------------------------------------|
A|9999999999999999888888888888888866666666666699992222222222224444|
E|----------------------------------------------------------------|

G|------------------------------------------------------------------------------|
D|------------------------------------------------------------------------------|
A|999999998888(13x4)444444444444888866666666888899992222222222222222(14x9)(16x7)|
E|------------------------------------------------------------------------------|


Rest until 4:09, then...

Chorus:
G|----------------------------------------------------------------|
D|----------------------------------------------------------------|
A|9999999999999999888888888888888866666666666699992222222222224444|
E|----------------------------------------------------------------|

G|------------------------------------------------------------------------------|
D|------------------------------------------------------------------------------|
A|999999998888(13x4)444444444444888866666666888899992222222222222222(14x16)-----|
E|------------------------------------------------------------------------------|

4:36
Epic Outro:
G|----------------------------------------------------------------|
D|----------------------------------------------------------------|
A|9-9-9-9-9-9-9-9-4-4-4-4-4-4-4-4-6-6-6-6-6-6-6-6-2-2-2-2-2-2-2-2-|
E|----------------------------------------------------------------|

G|----------------------------------------------------------------|
D|----------------------------------------------------------------|
A|9-9-9-9-9-9-9-9-4-4-4-4-4-4-4-4-6-6-6-6-8-8-9-9-2-2-2-2-2-2-4-4-|
E|----------------------------------------------------------------|

There you have it. This is my first tab, I made it because its an awesome song and
I couldn't find any good tabs for it yet. Hope this helps!

            
            
Suggest correction
Creating personal tab
Creating personal tab
You can edit any tab online and save it as your Personal.

You can edit, replace or remove any tab part or add personal notes – all changes will be seen only by you.

Personal tabs can be accessed anytime from any device, even offline.
Learn more »
comments
print report bad tab
5 comments total. Showing first comments.
+1 reply
Craig-Bass1995 177 Apr 21, 2010 11:37 AM

Sounds good, but it's a bit hard to follow. 5*

0 reply
ShattrdNghtmare 10 May 15, 2010 09:11 PM

The only problem with this tab is that there isn't actually any bass during the verse of this song, just in the Prechorus and Chorus. But, you already hit on that and, you're right, when boredom sets in it's nice to have something to play between sequences. Awesome song and great job.

0 reply
kevohui 10 Oct 02, 2010 04:41 AM

good tab!!

guest
Wanna post a correction for this tab? Suggest correction