Oops, an error
Loading. Please wait.

This Is War Tab

version 2
version 2

Whole song

Interactive

175,628 views 195 this week
15 commentsread comments
1 2 3 4 5
excellent!
x 53
add to favorites
launch autoscroll
font size
0
reset
how to read this tab
guitar tuner
Autoscroll
slow
fast
+/-
esc
set tempo
stop
Help us to improve Ultimate-Guitar.com Take our survey!
×
Author
Difficulty
Tuning
intermediate
D A D G B E
Pretty easy song. I'll put like musical kinda milestones so you know where to play 
each part, and enjoy =]

Tuning - Drop D (DADGBE)


[Intro]

Clean Delay on the guitar or you can pick the delayed notes too.
E|----------------------------------------------------------------------|
B|----------------------------------------------------------------------|
G|----------------------------------------------------------------------|
D|------8-8-------6-6-------4-4--------6-6------------------------------|
A|--6-6-----------------2-2-------4-4-----------------------------------|
D|------------4-4-------------------------------------------------------|

every first and third bar it does this                                   
E|----------------------------------------------------------------------|
B|----------------------------------------------------------------------|
G|------------------------------------8-8-8-8-8-------------------------|
D|------8-8-------6-6-------4-4-----------------------------------------|
A|--6-6-----------------2-2---------------------------------------------|
D|------------4-4----------------6-6------------------------------------|(x6)

Little Violin Bit Backing (Its fun to do the small fun parts lol)

E|-----------------------------|
B|-----------7--9---------7--9-|
G|----8--10--------8--10-------| ringing notes
D|-----------------------------|
A|-----------------------------|
D|-----------------------------|


[Pre-Chorus]

(also available: violin but transposed to guitar)

E|------------------------------------------------|
B|-7-----6-----------7-----7---6------------------|
G|---6-6---6-6-6-6-6---6-6---6---6----------------|  
D|------------------------------------------------|
A|------------------------------------------------|
D|------------------------------------------------|(x3)

E|------------------------------------------------|
B|-7-----6-----------9-9-9-9-9-9-9-9--------------|
G|---6-6---6-6-6-6-6------------------------------|
D|------------------------------------------------|  Last Time
A|------------------------------------------------|
D|------------------------------------------------|

This Is The Violin Bit On Guitar in the background of the pre-chorus.

E|-----------------------------|
B|-----------7--9---------7--9-|
G|----8--10--------8--10-------| ringing notes
D|-----------------------------|
A|-----------------------------|
D|-----------------------------|


[Chorus]

E|------------------------------------------------|
B|----------14-14-14-14-14----------14-14-14-14-14|
G|-11-11-11----------------11-11-11---------------|
D|------------------------------------------------|
A|------------------------------------------------|
D|------------------------------------------------|
                               
E|------------------------------------------------|
B|----------14-14-14-14-14----------14-14-14-14-14|
G|-10-10-10----------------10-10-10---------------|
D|------------------------------------------------|
A|------------------------------------------------|
D|------------------------------------------------|(x2)
                                                     
E|------------------------------------------------|
B|----------14-14-14-14-14----------14-14-14-14-14|
G|------------------------------------------------|
D|-13-13-13----------------13-13-13---------------|
A|------------------------------------------------|
D|------------------------------------------------|

E|------------------------------------------------|
B|----------14-14-14-14-14----------14-14-14-14-14|
G|------------------------------------------------|
D|-11-11-11----------------11-11-11---------------|
A|------------------------------------------------|
D|------------------------------------------------|

Little Violin Bit After Chorus

E|-------------------------|
B|-------------------------|
G|-------------------------|
D|---------------------6---|
A|---6--9--6--9--6--9------|
D|-------------------------|


[Verse]

Delay on the guitar or you can pick the delayed notes too.
E|----------------------------------------------------------------------|
B|----------------------------------------------------------------------|
G|----------------------------------------------------------------------|
D|------8-8-------6-6-------4-4--------6-6------------------------------|
A|--6-6-----------------2-2-------4-4-----------------------------------|
D|------------4-4-------------------------------------------------------|(x6)

Occasionally does this
E|----------------------------------------------------------------------|
B|----------------------------------------------------------------------|
G|------------------------------------8-8-8-8-8-------------------------|
D|------8-8-------6-6-------4-4-----------------------------------------|
A|--6-6-----------------2-2-------4-4-----------------------------------|
D|------------4-4-------------------------------------------------------|


[Pre-Chorus]

(also available: violin but transposed to guitar)

E|------------------------------------------------|
B|-7-----6-----------7-----7---6------------------|
G|---6-6---6-6-6-6-6---6-6---6---6----------------|  
D|------------------------------------------------|
A|------------------------------------------------|
D|------------------------------------------------|(x3)

E|------------------------------------------------|
B|-7-----6-----------9-9-9-9-9-9-9-9--------------|
G|---6-6---6-6-6-6-6------------------------------|
D|------------------------------------------------|  Last Time
A|------------------------------------------------|
D|------------------------------------------------|

This Is The Violin Bit On Guitar in the background of the pre-chorus

E|-----------------------------|
B|-----------7--9---------7--9-|
G|----8--10--------8--10-------| ringing notes
D|-----------------------------|
A|-----------------------------|
D|-----------------------------|


[Chorus]

E|------------------------------------------------|
B|----------14-14-14-14-14----------14-14-14-14-14|
G|-11-11-11----------------11-11-11---------------|
D|------------------------------------------------|
A|------------------------------------------------|
D|------------------------------------------------|
                               
E|------------------------------------------------|
B|----------14-14-14-14-14----------14-14-14-14-14|
G|-10-10-10----------------10-10-10---------------|
D|------------------------------------------------|
A|------------------------------------------------|
D|------------------------------------------------|(x2)
                                                      
E|------------------------------------------------|
B|----------14-14-14-14-14----------14-14-14-14-14|
G|------------------------------------------------|
D|-13-13-13----------------13-13-13---------------|
A|------------------------------------------------|
D|------------------------------------------------|

E|------------------------------------------------|
B|----------14-14-14-14-14----------14-14-14-14-14|
G|------------------------------------------------|
D|-11-11-11----------------11-11-11---------------|
A|------------------------------------------------|
D|------------------------------------------------|


[Bridge]

E|-------------------------|
B|-------------------------|
G|-------------------------| Let Ring for a short while
D|--4----------------------|
A|--4----------------------|
D|--4----------------------|


[Chorus]

E|------------------------------------------------|
B|----------14-14-14-14-14----------14-14-14-14-14|
G|-11-11-11----------------11-11-11---------------|
D|------------------------------------------------|
A|------------------------------------------------|
D|------------------------------------------------|
                               
E|------------------------------------------------|
B|----------14-14-14-14-14----------14-14-14-14-14|
G|-10-10-10----------------10-10-10---------------|
D|------------------------------------------------|
A|------------------------------------------------|
D|------------------------------------------------|(x2)
                                                      
E|------------------------------------------------|
B|----------14-14-14-14-14----------14-14-14-14-14|
G|------------------------------------------------|
D|-13-13-13----------------13-13-13---------------|
A|------------------------------------------------|
D|------------------------------------------------|

E|------------------------------------------------|
B|----------14-14-14-14-14----------14-14-14-14-14|
G|------------------------------------------------|
D|-11-11-11----------------11-11-11---------------|
A|------------------------------------------------|
D|------------------------------------------------|


[Last Chorus]

E|------------------------------------------------|
B|------------------------------------------------|
G|-11x16---10x8---13x8---11x16---13x8---15x8------|
D|------------------------------------------------|
A|------------------------------------------------|
D|------------------------------------------------|
                               
E|------------------------------------------------|
B|------------------------------------------------|
G|-11x16---10x12-10s/13-13x3---11x16--------------|
D|------------------------------------------------|
A|------------------------------------------------|
D|------------------------------------------------|

E|---------------------------------------------------------------|
B|---------------------------------------------------------------|
G|--11s/13-13-13----------13s/15-15-15----------15-15-16-18x16---|
D|---------------11-11-11--------------11-11-11------------------|
A|---------------------------------------------------------------|
D|---------------------------------------------------------------|


[Outro]

E|-------------------------------------------------|
B|-------11----12-11----14----12-11----14----12----|
G|-10s11----11-------11----11-------11----11----11-|
D|-------------------------------------------------|
A|-------------------------------------------------|
D|-------------------------------------------------|(x4)

                              Let It Ring
                             /
E|--------------------------14-----|
B|-11-12-14-11-12-14-11-12---------|
G|---------------------------------|
D|---------------------------------|
A|---------------------------------|
D|---------------------------------|

Have updated this tab since I last did it.  Thanks to tomk71 for helping out
with the part I hadn't tabbed before (the bit before the chorus), was 
greatly appreciated mate =]

Also updated the end of the song.  The guitar completely changes at the end for 
the chorus I've recently realized haha =]

Hope you like it =]

************************************

| x  Dead note
| s  slide 

************************************
Suggest correction
comments
print report bad tab
15 comments total. Showing first comments.
+4 reply
godisasniper 60 wrote on December 9 2009, 04:38 pm

Seems good, but where's the rhythm guitar?

0 reply
Tomozaurus 230 wrote on December 10 2009, 04:39 pm

Yeah, good tab for the lead. But there is another guitar, and its in Eb, not dropped D.

+3 reply
jontyler 20 wrote on December 18 2009, 12:00 am

good tab for lead.Great song.

guest
You may want to rate the tab now too:
select rating
Please do not post tabs as comments. Select "correction" instead!