Oops, an error
Loading. Please wait.
We have an official This Is War tab made by UG professional guitarists. Check out the tab »
×
7,149 views 84 this week
no commentswrite comment
1 2 3 4 5
x 5
add to favorites
launch autoscroll
font size
0
reset
how to read this tab
guitar tuner
backing track
0:00
0:00
Autoscroll
slow
fast
+/-
esc
set tempo
stop
Difficulty
intermediate
ok, so this is how i play it. both guitars. STANDARD TUNING.

Guitar 1 - STANDARD (E A D G B e)
Guitar 2 - STANDARD (E A D G B e)

intro - 0:33
--Guitar 1-- bit of distortion if you like and delay.
|---------------------------------------------|
|---------------------------------------------|
|----------------------------------------8888-|
|-------8-888/-----6-666/-----4-444\----8-----|
|---6-66-----/-4-44-----/-2-22-----\6-66------|
|---------------------------------------------|

--guitar 2---

rest

Pre chorus

--guitar 1--distortion. delay if you like
|----------|--------|-----|---------|----9999~|
|--44444444|66667777|\----|-9999999-|7777-----|
|----------|--------| \---|---------|---------|
|----------|--------| /x3-|---------|---------|
|----------|--------|/----|---------|---------|
|----------|--------|-----|---------|---------|

Guitar 2
 Downstroke palm mutes. distorion                      (ease of pm)          
|------------------|------------------|------------------|-------------|
|------------------|------------------|------------------|-------------|
|------------------|------------------|------------------|-------------|
|-8888888888888888-|-6666666666666666-|-4444444444444444-|-8888888~----|
|-6666666666666666-|-4444444444444444-|-2222222222222222-|-6666666~----|
|------------------|------------------|------------------|-------------|


Chorus

--Guitar one & two-- same as pre chorus with no delay
    11's/10's/13/ ect
|------------------|----------------|----------------|----------------|
|--------14141414--|-------14141414-|-------14141414-|-------14141414-|
|--111111/---------|-101010---------|-131313---------|-111111---------|
|------------------|----------------|----------------|----------------|
|------------------|----------------|----------------|----------------|
|------------------|----------------|----------------|----------------|


   Repeat: - intro
           - verse
           - chorus
  bridge
--guitar one--
|--------|
|-14-~~~-|
|--------|
|--------|
|--------|
|--------|

--guitar 2-- hold for as long as possible
|-------|
|-------|
|-------|
|-4-~~~-|
|-4-~~~-|
|-2-~~~-|


  Last Chorus- copied from guitguy92
Guitar 2 repeats chorus 1

--guitar one--
|------------------------------------------------|
|------------------------------------------------|
|-11x16---10x8---13x8---11x16---13x8---15x8------|
|------------------------------------------------|
|------------------------------------------------|
|------------------------------------------------|
                               
|------------------------------------------------|
|------------------------------------------------|
|-11x16---10x12-10s/13-13x3---11x16--------------|
|------------------------------------------------|
|------------------------------------------------|
|------------------------------------------------|

|---------------------------------------------------------------|
|---------------------------------------------------------------|
|--11s/13-13-13----------13s/15-15-15----------15-15-16-18x16---|
|---------------11-11-11--------------11-11-11------------------|
|---------------------------------------------------------------|
|---------------------------------------------------------------|

  Outro solo thing
--Guitar 1-- again copied from guitguy92

E|-------------------------------------------------|
B|-------11----12-11----14----12-11----14----12----|
G|-10s11----11-------11----11-------11----11----11-| X4
D|-------------------------------------------------|
A|-------------------------------------------------|
D|-------------------------------------------------|

                              Let It Ring
                             /
E|--------------------------14-----|
B|-11-12-14-11-12-14-11-12---------|
G|---------------------------------|
D|---------------------------------|
A|---------------------------------|
D|---------------------------------|

not sure what guitar 2 does.

and there you have it. enjoy as this took forever :).  
Suggest correction
comments
print report bad tab
guest
You may want to rate the tab now too:
select rating
Wanna post a correction for this tab? Suggest correction