Oops, an error
Loading. Please wait.

Vox Populi Tab

version 1
version 1

Whole song

Interactive

1,923 views 6 this week
no commentswrite comment
1 2 3 4 5
please rate
add to favorites
launch autoscroll
font size
0
reset
how to read this tab
guitar tuner
Tab Pro tools
  • play this tab
  • loop segment
  • change instrument
  • show fretboard
  • metronome
×
Best way to learn
"Vox Populi"
Autoscroll
slow
fast
+/-
esc
set tempo
stop
Contributor
Difficulty
intermediate
Vox populi
30 Seconds to Mars
This is War

Intro

(Tremolo & Delay)(0:19-1:00)

E-------------------------------------------------------------------------|
B-------------------------------------------------------------------------|
G----------14-14-14-14-14----------14-14-14-14-14----------14-14-14-14-14-|
D-12-12-12----------------12-12-12----------------12-12-12----------------|
A-------------------------------------------------------------------------|
E-------------------------------------------------------------------------|

E------------------------------)
B------------------------------)
G-----------14-12-12-12-12-----) x7
D-12-12-12---------------------)
A------------------------------)
E------------------------------)

Verse (2nd Half) (1:24)
The notes you clearly hear are on the G string, but he pedals on the D in between

E----------------------------------------------------------------------------------|
B----------------------------------------------------------------------------------|
G-11---14---14---14---14---12---12---14---11---11---11---11---11---11---11---11----|
D----12---12---12---12---12---12---12---12---12---12---12---12---12---12---12---12-|
A----------------------------------------------------------------------------------|
E----------------------------------------------------------------------------------|

E-------------------------------------------------------------------------------)
B-15---15---15---15---15---15---15---15---15---15---15---15---14----------------)
G-------------------------------------------------------------------------------)
D----12---12---12---12---12---12---12---12---12---12---12---12------------------)
A-------------------------------------------------------------------------------)
E-------------------------------------------------------------------------------)

Chorus (Same as intro except x4)

Interlude (1:59)

E-------------------------------------------------|
B-------------------------------------------------|
G-14-14-14-14-14-14-14-14-14-14-14-14-14-14-14-14-|
D-12-12-12-12-12-12-12-12-12-12-12-12-12-12-12-12-|
A-------------------------------------------------|
E-------------------------------------------------|

E-------------------------------------------------|
B-------------------------------------------------|
G-12-12-12-12-12-12-12-12-12-12-12-12-12-12-12-12-|
D-12-12-12-12-12-12-12-12-12-12-12-12-12-12-12-12-|
A-------------------------------------------------|
E-------------------------------------------------|

E----------------------------------------------------------------------------------|
B-----------------------------------------15---15---15---15---15---15---14---14----|
G-14---14---14---14---12---12---12---12--------------------------------------------|
D----12---12---12---12---12---12---12---12---12---12---12---12---12---12---12---12-|
A----------------------------------------------------------------------------------|
E----------------------------------------------------------------------------------|

Verse 2 (1st half) same as interlude

Verse 2 (2nd half)
E----------------------------------------------------------------------------------|
B----------------------------------------------------------------------------------|
G-14---14---14---14---14---12---12---14----12---12---12---12---12---12---12---12---|
D----12---12---12---12---12---12---12---12---12---12---12---12---12---12---12---12-|
A----------------------------------------------------------------------------------|
E----------------------------------------------------------------------------------|

E----------------------------------------------------------------------------------|
B-15---15---15---15---15---15---15---15---15---15---15---15---14---14---14---------|
G-----------------------------------------------------------------------------14---|
D----12---12---12---12---12---12---12---12---12---12---12---12---12---12---12------|
A----------------------------------------------------------------------------------|
E----------------------------------------------------------------------------------|

(2:34) Here we are at…

E----------------------------------------------------------------------------------)
B----------------------------------------------------------------------------------)
G----14-----------------12--------------11-------------9-------------14---------12-)
D--------------------12--------------12-------------12------------12---------12----)
A----------------------------------------------------------------------------------)
E----------------------------------------------------------------------------------)


E-------------------)
B-------------------)
G-----------------)-) (x8)
D-------------------)
A-5-5-5-5-5-5-5-5---)
E-------------------)

(3:06) (Delay) Darkness falls…
This part is tough to figure out w/o delay.  Just set to 8th notes and it’ll make sense

E--------------------------------------------------------)
B----------------------------------------------15--------)
G--------14---14p12-----------12-----12h14-----14-----)--)  (x4)
D-12---12-----12--------------12-----12--------12--------)
A--------------------------------------------------------)
E--------------------------------------------------------)

(3:29) Far, far away…

E----------------------)
B----------------------)
G-0---------0--------)-) (x3)
D---4---------4--------)
A-----5---------5\0----)
E----------------------)


E-------------------------------)
B-------------------------------)
G-0---------0-------------------)
D---4---------4-----------------)
A-----5---------5-4---5---7---9-)
E-----------------5-------------)

(4:16)

E-------------------------------------------------|
B-------------------------------------------------|
G-14-14-14-14-14-14-14-14-14-14-14-14-14-14-14-14-|
D-12-12-12-12-12-12-12-12-12-12-12-12-12-12-12-12-|
A-------------------------------------------------|
E-------------------------------------------------|

E----------------------------------------------------)
B----------------------------------------------------)
G-14-14-14-14-14-14-14-14-14-14-14-14-12-12-12-12-)--)  (x3)
D-12-12-12-12-12-12-12-12-12-12-12-12-12-12-12-12----)
A----------------------------------------------------)
E----------------------------------------------------)

(4:28)

E-------------------------------------------------|
B-------------------------------------------------|
G-14-14-14-14-14-14-14-14-14-14-14-14-14-14-14-14-|
D-12-12-12-12-12-12-12-12-12-12-12-12-12-12-12-12-|
A-------------------------------------------------|
E-------------------------------------------------|

E-------------------------------------------------)
B-15-15-15-15-15-15-15-15-15-15-15-15-15-15-15-15-)
G-14-14-14-14-14-14-14-14-14-14-14-14-12-12-12-12-)
D-12-12-12-12-12-12-12-12-12-12-12-12-12-12-12-12-)
A-------------------------------------------------)
E-------------------------------------------------)

(4:39)

E-------------------------------------------------|
B-15-15-15-15-15-15-15-15-15-15-15-15-15-15-15-15-|
G-14-14-14-14-14-14-14-14-14-14-14-14-12-12-12-12-|
D-12-12-12-12-12-12-12-12-12-12-12-12-12-12-12-12-|
A-------------------------------------------------|
E-------------------------------------------------|

E---------------------------------------------------)
B-15-15-15-15-15-15-15-15-15-15-15-15-14-14-14-14---)
G-14-14-14-14-14-14-14-14-14-14-14-14-14-14-14-14-)-) (x2)
D-12-12-12-12-12-12-12-12-12-12-12-12-12-12-12-12---)
A---------------------------------------------------)
E---------------------------------------------------)

(4:51)

E-------------------------------------------------|
B-15-15-15-15-15-15-15-15-15-15-15-15-15-15-15-15-|
G-14-14-14-14-14-14-14-14-14-14-14-14-12-12-12-12-|
D-12-12-12-12-12-12-12-12-12-12-12-12-12-12-12-12-|
A-------------------------------------------------|
E-------------------------------------------------|

E-------------------------------------------------)
B-15-15-15-15-15-15-15-15-17-17-17-17-17-17-17-17-)
G-14-14-14-14-14-14-14-14-14-14-14-14-14-14-14-14-)
D-12-12-12-12-12-12-12-12-12-12-12-12-12-12-12-12-)
A-------------------------------------------------)
E-------------------------------------------------)

E-------------------------------------------------|
B-14-14-14-14-14-14-14-14-15-15-15-15-15-15-15-15-|
G-14-14-14-14-14-14-14-14-14-14-14-14-12-12-12-12-|
D-12-12-12-12-12-12-12-12-12-12-12-12-12-12-12-12-|
A-------------------------------------------------|
E-------------------------------------------------|

E-------------------------------------------------)
B-15-15-15-15-15-15-15-15-15-15-15-15-15-15-15-15-)
G-14-14-14-14-14-14-14-14-14-14-14-14-14-14-14-14-)
D-12-12-12-12-12-12-12-12-12-12-12-12-12-12-12-12-)
A-------------------------------------------------)
E-------------------------------------------------)

(5:03) (cuts in half, guitar switches to bar chords)

E-------------------------------------------------)
B-------------------------------------------------)
G-------------------------------------------------)
D-12------17-16-5-----17-16-9-----17-16-5---------)
A-12------x--x--5-----x--x--9-----x--x--7---------)
E-10------15-14-3-----15-14-7-----15-14-7---------)
comments
We did not receive enough feedback on this tab! Please rate:
print report bad tab
1 2 3 4 5
I want to post or [tab]
guest
You may want to rate the tab now too:
select rating
Please do not post tabs as comments. Select "correction" instead!