Oops, an error
Loading. Please wait.

100 Rock tab

by 311
1,022 views 1 this week
4 commentsread comments
1 2 3 4 5
3 more votes to show rating
add to favorites
×
Save as Personal and add changes to this tab that will be seen only by you. Learn more ›
×
You can save this tab as Personal to edit and correct it or add notes. All changes will be seen only by you. Learn more »
launch autoscroll
font size
0
reset
how to read this tab
guitar tuner
edit
Autoscroll
slow
fast
+/-
esc
set tempo
stop
“100 Rock” by: 311

Tabbed by: Chris Gill
Email: CGill1403@aol.com

This was a demo off of “don’t tread on me” hit me up on AIM if u would like to hear it

Tuning: E A D G B e

e|----------------------------------------------|
B|----------------------------------------------|
G|----------------------------------------------|
D|-----5-----5------5-----5------5-----5-----5--|
A|--6--3--6--3---6--3--6--3---6--3--6--3--6--3--|
E|--4-----4------4-----4------4-----4-----4-----|
w/ octaver

e|-------------------------------|
B|-------------------------------|
G|-------------------------------|
D|-------------------------------|
A|--2-----5--4--2--x-x-x--5-4-5--|
E|--0-----3--2--0--x-x-x--3-2-3--|
w/ octaver

e|------------------------------|
B|------------------------------|
G|------------------------------|
D|------------------------------|
A|--2--x-x-5-4-5-2--2--x--4--5--|
E|--0--x-x-3-2-3-0--0--x--2--3--|
w/ octaver


| /  slide up
| \  slide down
| h  hammer-on
| p  pull-off
| ~  vibrato
| +  harmonic
| x  Mute note
===============================================================================


            
            
Suggest correction
Creating personal tab
Creating personal tab
You can edit any tab online and save it as your Personal.

You can edit, replace or remove any tab part or add personal notes – all changes will be seen only by you.

Personal tabs can be accessed anytime from any device, even offline.
Learn more »
Give kudos to tab author, rate the tab!
1 2 3 4 5
comments
print report bad tab
4 comments total. Showing first comments.
0 reply
Brodel 313 Jun 29, 2007 06:15 PM

nice dude,I think the other part goes like this
A|--99x-7-6-6-666-4-2-2---2-7-9-7-10--
E|--77x-5-4-4-444-2-0-0---0-5-7-5--8--
Dude thanks for tabbing this song because i didnt know it existed,so i downloaded it from the 311 box on their myspace tribute page.this song is sick as hell.5 stars

0 reply
jppraterco08 10 Oct 01, 2008 05:50 PM

WAY off.
Tuned down a quarter step, as this was only a demo.

Intro:
d|-------------------------------------
a|---3---3---3---3----3---3---3--------
e|-1---2---1---2----1---2---1----------

Part 2:
d|----------------------
a|----------------------
e|-2-0-2-2-x-x-x-5-2-5--

Chorus:
d|-8-8-8-7-6--6--6-6-6-5-2--2--
a|-9-9-9-7-6--6--6-6-6-4-2--2--
e|-7-7-7-5-4--4--4-4-4-2-0--0--

end of chorus
d|-2--7--9--7--10-
a|-2--7--9--7--10-
e|-0--5--7--5--8--

I'm working on the wah part in the chorus right now, will post soon.

0 reply
jppraterco08 10 Oct 01, 2008 05:51 PM

Intro:
d|-------------------------------------
a|---3---3---3---3----3---3---3--------
e|-1---2---1---2----1---2---1----------

Part 2:
d|----------------------
a|----------------------
e|-2-0-2-2-x-x-x-5-2-5--

Chorus:
d|-8-8-8-7-6--6--6-6-6-5-2--2--
a|-9-9-9-7-6--6--6-6-6-4-2--2--
e|-7-7-7-5-4--4--4-4-4-2-0--0--

end of chorus
d|-2--7--9--7--10-
a|-2--7--9--7--10-
e|-0--5--7--5--8--

I'm working on the wah part in the chorus right now, will post soon.

guest
You may want to rate the tab now too:
select rating
Wanna post a correction for this tab? Suggest correction