Oops, an error
Loading. Please wait.

All Mixed Up tab

version 1
version 1

Whole song

Interactive

by 311
67,546 views 39 this week
4 commentsread comments
1 2 3 4 5
x 23
add to favorites
×
Save as Personal and add changes to this tab that will be seen only by you. Learn more ›
×
You can save this tab as Personal to edit and correct it or add notes. All changes will be seen only by you. Learn more »
launch autoscroll
font size
0
reset
how to read this tab
guitar tuner
edit
Autoscroll
slow
fast
+/-
esc
set tempo
stop
Author
Unregistered
[Intro & Verse]
e|--4--5--x-6-x-6-x-x-6-x-x-6-6-x-x-|
B|--6--6--x-6-x-6-x-x-9-x-x-9-6-x-x-|
G|--5--5----7---7-------------------|
D|--6--7----------------------------|
A|----------------------------------|
E|----------------------------------|

[Heavy Verse, Chorus, Outro]
e|---------------------------------------------------|
B|---------------------------------------------------|
G|---------------------------------------------------|
D|---------------------------------------------------|
A|--1-1----------------------1-1---------------------|
E|-------0/1-4-4-4-4-4-4-4-4-----0/1-4-4-4-4-4-4-4-4-|

[Bridge]
e|--x-6-x-6-6-x-x-x-6-x-x-x-6-x-6-6-x-x-6-x-x-|
B|--x-6-x-6-6-x-x-x-6-x-x-x-6-x-6-6-x-x-6-x-x-|
G|--------7-7-------7-------------7-----7-----|
D|--------------------------------------------|
A|--------------------------------------------|
E|--------------------------------------------|

[Other part on bridge]
(You make me nervous...)
e|--6--6-4--4-6--6-4--4-6--6-4--4-6--6-4--4-|
B|--6--6-4--4-6--6-4--4-6--6-4--4-6--6-4--4-|
G|--7--7-5--5-7--7-5--5-7--7-5--5-7--7-5--5-|
D|------------------------------------------|
A|------------------------------------------|
E|------------------------------------------|

(End on the Bb note on the 1st fret of the A string.)


************************************

| x  Dead note
| /  Slide up

************************************

            
            
Suggest correction
Creating personal tab
Creating personal tab
You can edit any tab online and save it as your Personal.

You can edit, replace or remove any tab part or add personal notes – all changes will be seen only by you.

Personal tabs can be accessed anytime from any device, even offline.
Learn more »
comments
print report bad tab
4 comments total. Showing first comments.
0 reply
cr0ssfader637 10 May 22, 2006 12:42 PM

This tab is great =) Thank you!

0 reply
Dionysos95 10 Sep 05, 2009 05:11 AM

Great indeed! (Y)

+1 reply
andrewjp123 583 Jul 18, 2010 04:17 PM

it kinda sounds like powerchords at the chorus

guest
Wanna post a correction for this tab? Suggest correction