Oops, an error
Loading. Please wait.
We have an official Beautiful Disaster tab made by UG professional guitarists. Check out the tab »
×
by 311
40,330 views 18 this week
6 commentsread comments
1 2 3 4 5
x 15
add to favorites
launch autoscroll
font size
0
reset
guitar tuner
backing track
0:00
0:00
Autoscroll
slow
fast
+/-
esc
set tempo
stop
'Beautiful Disaster' -- Bass Tab
Performed by 311
From the album "Transistor" on Capricorn/Mercury Records
Music by:  N. Hexum
Lyrics by:  N. Hexum

 [Intro]
G|-----------------|
D|-----------------|
A|-2-0-2-----------|
E|-------3-2-3-2-0-|

 [Intro Fill]
G|-----------|
D|-----------|
A|-2-------2-|
E|---3-2-3---|

 [Riff A]
G|-----------------------------------------|
D|-----------------------------------------|
A|-2-2-2-2-2-------------------------------|
E|-----------3-3-3-3-3-0-0-0-0-0-2-2-2-2-2-|

 [Riff B]
G|------------------------------------------|
D|------------------------------------------|
A|-2--2-2-0-0-------------------------------|
E|------------3-3-3-3-3-0-0-0-0-0-2-2-2-2-2-|

 [Chorus A]
G|-------------------------|
D|-------------------------|
A|-------4-4-4-------2-2-2-|
E|-0-0-0-------2-2-2-------|

 [Chorus B]
G|---------------------------------|
D|---------------------------------|
A|---------4-4-4-4---------2-2-2-2-|
E|-0-0-0-0---------2-2-2-2---------|

 [Chorus C]
G|-------------------------------------------------|
D|-------------------------------------------------|
A|-----------------4-4-4-4-4-4-4-4-----------------|
E|-0-0-0-0-0-0-0-0-----------------2-2-2-2-2-2-2-2-|

G|-----------------|
D|-----------------|
A|-2-2-2-2-2-2-2-2-|
E|-----------------|

 [Bridge]
G|---------------------------|
D|---------------------------|
A|---------------------------|
E|-0-0--0-b3b--0-0-b3b-0-b3b-|

************************************

| b  Bend

************************************

[Song Structure]
[Guitar Intro]
[Bass Intro]  (x3)
[Intro fill]
[Riff A]  (x6)
[Riff B]  (x2)
[Intro]  (x3)
[Intro Fill]
[Riff A]  (x2)
[Riff B]  (x2)
[Intro]  (x3)
[Intro Fill]
[Chorus A]  (x2)
[Chorus B]  (x2)
[Chorus C]  (x2)
[Bridge]  (x4)
[Riff A]  (x6) (Times 5 and 6 are synth. parts)
[Riff B]  (x2)
[Intro]  (x3)
[Intro Fill]
[Chorus A]  (x2)
[Chorus B]  (x2)
[Chorus C]  (x2)
[Bridge]  (x4)
[End] on E

== Last Updated:  August 11, 1997 ==
Suggest correction
comments
print report bad tab
6 comments total. Showing first comments.
0 reply
Love_4_6string 10 Apr 16, 2002 08:00 PM

awsome tab thats amazing how you could find that out ive been trying for so long thanx

0 reply
Love_4_6string 10 Apr 16, 2002 08:00 PM

awsome tab thats amazing how you could find that out ive been trying for so long thanx

0 reply
metalfreak794 335 Dec 05, 2002 07:00 PM

311 uses a 5-string, stupid

guest
Wanna post a correction for this tab? Suggest correction