Oops, an error
Loading. Please wait.

Brodels Tab

by 311
2,042 views 1 this week
3 commentsread comments
1 2 3 4 5
1 last vote to show rating
add to favorites
×
Save as Personal and add changes to this tab that will be seen only by you. Learn more ›
×
You can save this tab as Personal to edit and correct it or add notes. All changes will be seen only by you. Learn more »
save as personal
new!
launch autoscroll
font size
0
reset
how to read this tab
guitar tuner
Autoscroll
slow
fast
+/-
esc
set tempo
stop
Tuning
E A D G B E
                             ****************
                                "Brodels"
                                  by: 311
                             ****************
On '311'
Wurdz + Muzick: Sexton, Hexum, Martinez
Tabbed by: Chris Sherman (Anyuerysm@aol.com)
________________________________________________________________________

Verse (a)
                                                       2x
e-----------------------------------------------------
B-----------------------------------------------------
G-----------------------------------------------------
D--6--4-6--4---6--4-6--4-9-8-6--4-6--4---6--4-6--4-4--
A--4--2-4--2---4--2-4--2-7-6-4--2-4--2---4--2-4--2-1--
E--4--2-4--2---4--2-4--2-7-6-4--2-4--2---4--2-4--2-x--

Verse (b)
                               4x
e-----------------------------
B-----------------------------
G-----------------------------
D--5--4-5-4-5-5--4-5-4-5-7-9--
A--5--4-5-4-5-5--4-5-4-5-7-9--
E--3--2-3-2-3-3--2-3-2-3-5-7--

Pre-Chorus
                                               4x
e---------------------------------------------
B---------------------------------------------
G---------------------------------------------
D--7-7-x-5-x-5-5-x-7-x-5-x-7-x-5-x-5-5-x-7\6--
A--7-7-x-5-x-5-5-x-7-x-5-x-7-x-5-x-5-5-x-7\6--
E--5-5-x-3-x-3-3-x-5-x-3-x-5-x-3-x-3-3-x-5\4--
Chorus
                 pm____                                    2x
e---------------------------------------------------------------
B---------------------------------------------------------------
G----------------4-----------------3-4-3-----4-4-4-3-3-3--------
D--2-2-5-7-8-7-5-4-2-2-2-2-4-3-3-6-3-4-3-6-6-4-4-4-3-3-3-2-2-2--
A--2-2-5-7-8-7-5-2-2-2-2-2-4-3-3-6-1-2-1-6-6-2-2-2-1-1-1-2-2-2--
E--0-0-3-5-6-5-3---0-0-0-0-2-1-1-4-------4-4-------------0-0-0--

Ending

e------------------------------------------
B------------------------------------------
G------------------------------------------
D--7\6--7\6--7\6--7-6-6-6-4-4-4-6-6-6-6\\--
A--7\6--7\6--7\6--7-6-6-6-4-4-4-6-6-6-6\\--
E--5\4--5\4--5\4--5-4-4-4-2-2-2-4-4-4-4\\--

Layout:
Verse (a)
Verse (b)
Pre-Chorus
Chorus
Verse (a)
Verse (b)
Pre-Chorus
Chorus
Verse (b)
Ending
Suggest correction
Give kudos to tab author, rate the tab!
1 2 3 4 5
comments
print report bad tab
3 comments total.
0 reply
Brodel 303 Oct 23, 2007 04:01 PM

great,but I think that slide should be -8/7---
-8/7---
-6/5---

0 reply
Brodel 303 Oct 23, 2007 04:01 PM

great,but I think that slide should be
-8/7---
-8/7---
-6/5---

0 reply
montiver0311 12 Jul 01, 2017 06:24 PM, edited at 10:24 pm

The intro riff is off by half a step. everything needs to shift accordingly on the slides down.-6--4--- -6--4 -x -x-4--2--- OR -6--4 and this -2 -4-4--2--- -4--2 -2 -1 -4--2 -0 -x

guest
Wanna post a correction for this tab? Suggest correction