Oops, an error
Loading. Please wait.

Crack The Code bass

version 1
version 1

Whole song

Interactive

by 311
2,279 views 1 this week
5 commentsread comments
1 2 3 4 5
x 5
add to favorites
×
Save as Personal and add changes to this tab that will be seen only by you. Learn more ›
×
You can save this tab as Personal to edit and correct it or add notes. All changes will be seen only by you. Learn more »
launch autoscroll
font size
0
reset
guitar tuner
backing track
0:00
0:00
edit
Autoscroll
slow
fast
+/-
esc
set tempo
stop
Author
song: Crack The Code 
artist: 311
album: Evolver
tabbed by: Mallo 
e-mail: shatteredseals@hotmail.com\

h- Hammer on
t- Triplet

Standard 4 - G, D, A, E

  This is my first attempt at the 311 bass line and I think I came pretty 
close but all I need is the 5th string and I may be able to make it complete.
With the transition to the 2nd riff I have yet to figure it out, but I put it
on here to show you that there is one.

main riff in verse and intro:						Transition to 2nd riff
G: --------------------------------------------------------------------||---------------------
D: ----0h5--9---7-5-----0h5--7---5-3------0h5--7---5-3-----------------||---------------------
A: --------------------------------------------------------3-------3---||---------------------
E: -3----------------3----------------3----------------0-3---3-3-3---0-||---------------------

verse 2nd riff:
G: -----------------------------------------------------------------
D: -----------------------------------------------------------------
A: -000------000------000------000------000------000----------------
E: ---------------------------------0-----------------0---111111111-
    ttt      ttt      ttt      ttt      ttt	 ttt
chrous:									Ending
G: -------------------------------------------------------------------------||------
D: -------------------------------------------------------------------------||------
A: ----------------------------------------------------------33333-5555555--||------
E: -11--11--11--11--11--11--11--11--11--11--11--11--3333333-----------------||--3r--
Suggest correction
Creating personal tab
Creating personal tab
You can edit any tab online and save it as your Personal.

You can edit, replace or remove any tab part or add personal notes – all changes will be seen only by you.

Personal tabs can be accessed anytime from any device, even offline.
Learn more »
comments
print report bad tab
5 comments total. Showing first comments.
0 reply
cplaya177 10 Jan 30, 2004 07:00 PM

Hey man good job. But to play it easier on your 4 string consider tuning to drop d. makes life a lot easier.

0 reply
cplaya177 10 Jan 30, 2004 07:00 PM

one more thing, if you go standard its E3, then the next two 3's should be 1's. i cant find where i put my actual tab but i did the same mistake for a while. the rest sounds pretty good to me. nice tab.

+1 reply
p4nz0rZr0x0r 30 Sep 29, 2004 08:00 PM

I don't know man, when I tabbed it myself this is what I got:

G|-------4--2-----------2--0-----------2--0-----------------------
D|------------5--------------3--------------3---------------------
A|---2h5------------0h3------------0h3----------------7------9----
E|3--------------1--------------1-------------0h5--8----7-10---0h3
First note when you repeat-^

Second part:
G|-------------------------------
D|-------------------------------
A|---0--3---0---0----2--5---3-2--
E|1-----------1---3-------------3

Repeat that part 3 times and then I don't know what they do...

guest
You may want to rate the tab now too:
select rating
Wanna post a correction for this tab? Suggest correction