Oops, an error
Loading. Please wait.

Creatures Bass

version 1
version 1

Whole song

Interactive

by 311
3,877 views 6 this week
2 commentsread comments
1 2 3 4 5
x 3
add to favorites
launch autoscroll
font size
0
reset
guitar tuner
Autoscroll
slow
fast
+/-
esc
set tempo
stop
Author
Band: 311
Song: Creatures (For A While)
Producer: Saint and 311
Mixed: Saint

This is the album version…all this means is that there is one extra repeat of the intro riff.
Here it is to all those 311 fans that are dying for these tabs….

P= pull off
(#)= Harmonics


Intro/Chorus:

G: -----------------------------------------------------------------------
D: -----------------------------------------------------------------------
A: ----------------------------------------------------------------------- x 2
E: -----------------------------------------------------------------------
B: --4p2-2-2-0-0-0-0--4p2-2-2-0-0-0-0—4p2-2-2-0-0-0-0—4p2-2-2-2-0-0-0-----

G: ------------------
D: ------------------
A: ------------------
E: -----2------1-----
B: --0----0-0--------

                                                                                   Or

G: ----------------------------------------------------------------------
D: ---------------------------------------------------------------------- x 2
A: --6p4-4-4-2-2-2-2—6p4-4-4-2-2-2-2--6p4-4-4-2-2-2-2--6p4-4-4-4-2-2-2---
E: ----------------------------------------------------------------------

G: ---------------
D: ---------------
A: --2-2-2-2------ 
E: -------------1—

Verse:

G: -------5-5----------------I                      G: ------5--------------
D: --3----------3-3----------I       Then           D: --3-----3-------------
A: --------------------2-3---I  x 3                 A: -------------3-3-2-3-
E: --------------------------I                      E: -------------------
B: --------------------------I                      B: -------------------

Nick’s part:

G:--------------------------------------------------------------------------I
D:-----------------------------------4-------------------4-----------4------I
A:-------------------------4-------------------4---------------4------------I
E:-2-2-2-2-2-2-2-2--2-2-2-----2-2-2-----2-2-2----2-2-2------2-----2-----2-2-I
B:--------------------------------------------------------------------------I

SA’s part:

G: --------------------------I
D: --------------------------I
A: --------------------------I x 4
E: --1---1----3-----4---1----I
B: --------------------------I

Repeat Nick’s part with some variation.

Pre-chorus: 
                                    Then                 
G: -----------------------------I         G: ---------------------------------I
D: -----------------------------I         D: ---------------------------------I
A: ------------------------4----I x 4     A: ---------------------------------I 
E: --4—2—4—2—4------------------I         E: --5--(5)--5--(5)--5--(5)---5-(5)-I
B: -----------------------------I         B: ---------------------------------I

Repeat Intro/Chorus

Repeat Verse

Repeat Nick’s part with some variation

Repeat SA’s part

Repeat Nick’s part with some variation

Repeat Pre-chorus

Bridge:
                              then
G: --------------------------       G: -------I        G:-------I
D: --------------------------       D: -------I        D:-------I
A: --------------------------       A: -------I    or  A:----2--I
E: --5-(5)-5-(5)-5-(5)-5-(5)-       E: -5-----I        E:-5-----I
B: --------------------------       B: ----0--I        B:-------I

Repeat Intro/Chorus

Well that’s all folks. It’s not that hard. You have to listen to some timing
parts but you’ll get the hang of it. This is a great song to have fun with. Any
corrections e-mail me at distortedlb212@yahoo.com.
"Stay Positive and love your life."

       Peace out,
                   Tony :-P
Suggest correction
Give kudos to tab author, rate the tab!
1 2 3 4 5
comments
print report bad tab
2 comments total.
0 reply
my_elemenohpee 80 Jul 11, 2004 08:00 PM

missed alot of stuff at the end, otherwise good job.

0 reply
p4nz0rZr0x0r 30 Dec 09, 2004 07:00 PM

Fourth part of the verse:

--5----------
3---6-3------
--------3-2-3
-------------

guest
You may want to rate the tab now too:
select rating
Wanna post a correction for this tab? Suggest correction