Oops, an error
Loading. Please wait.

Feels So Good Bass

by 311
5,629 views 12 this week
2 commentsread comments
1 2 3 4 5
x 5
add to favorites
launch autoscroll
font size
0
reset
guitar tuner
×
Best way to learn
"Feels So Good"
Autoscroll
slow
fast
+/-
esc
set tempo
stop
Tuning
E A D G B E
Tuning: Standard 
Low to High E A D G

[Intro]
G|-------------------------------------------------2-|
D|----------------------3-2-0-0-0----------3-0-2-3---|
A|-5-5---5-5-----------------------------------------|continued'
E|-----------3-4-5-5--3------------3-4-5-5-----------|

G|---------------------------------------------|
D|----------------------3-2-0-0-0--------------|
A|-5-5---5-5-----------------------------------|
E|-----------3-4-5-5--3------------3-4-5-3-1-0-|

[Verse 1]
"Well everybody got an opinion...."
G|-------------------------------------------------------|
D|-----------------3-----------------5-----------------6-|
A|-3h5-3h5-3h5-3h5---3h5-3h5-3h5-3h5---3h5-3h5-3h5-3h5---|continued'
E|-------------------------------------------------------|

G|-------------------|
D|-------------------|
A|-3h5-3h5-3h5-3h5---|(play 3x)
E|-----------------3-|

[Pre-Chorus]
"Paybacks a..."
                                                      p p
G|----------------------------------------------------2-2--|
D|----------------------3-2-0-0-0----------3-0-2-3-2x--2x--|
A|-5-5---5-5-----------------------------------------------|Continued'
E|-----------3-4-5-5--3------------3-4-5-5-----------------|

G|----------------------------------------------|
D|-----------------------3-2-0-0-0--------------|
A|-5-5---5-5------------------------------------|
E|------------3-4-5-5--3------------3-4-5-5-5-5-|

[Chorus]
"In your face..."
G|-------------------------|
D|-------------------------|
A|---5-7-------------------|(play 3x)
E|-7-----0-0-0-3-0-3-0-0-0-|

G|----------------|
D|----------------|
A|---5-7----------|
E|-7-----0-0--0-0-|

[Verse 2]
"Take it to em..."
G|-------------------------------------------------------|
D|-----------------3-----------------5-----------------6-|
A|-3h5-3h5-3h5-3h5---3h5-3h5-3h5-3h5---3h5-3h5-3h5-3h5---|continued'
E|-------------------------------------------------------|

G|-------------------|
D|-------------------|
A|-3h5-3h5-3h5-3h5---| (play 3x)
E|-----------------3-|

[Pre-Chorus]
"I get.."
G|-------------------------------------------------2-|
D|----------------------3-2-0-0-0----------3-0-2-3---|
A|-5-5---5-5-----------------------------------------|continued'
E|-----------3-4-5-5--3------------3-4-5-5-----------|

G|----------------------------------------------|
D|-----------------------3-2-0-0-0--------------|
A|-5-5---5-5------------------------------------|
E|------------3-4-5-5--3------------3-4-5-5-5-5-|

[Chorus]
"In your face..."
                                                    P
G|--------------------------------------------------9-|
D|----------------------------------------------------|
A|---5-7----------------------5-7-------------7x-7x---|
E|-7-----0-0-0-3-0-3-0-0-0--7-----0-0-0-3-0-3---------|

G|-----------------------------------------|
D|-----------------------------------------|
A|---5-7----------------------5-7----------|
E|-7-----0-0-0-3-0-3-0-0-0--7-----0-0--0-0-|

[Bass Solo]
"Yo P-nut Beat that thing..."
      p      P      P      P P
G|----7------7------7------7-7-------|
D|---------------------------7-------|
A|-5x--5x-5x--5x-5x--5x-5x-----0xh5x-| (play 3x)
E|-----------------------------------|
        P P         P P       P
G-------7-5h7-------7-5h-7----7-|
D-------------------------------|
A-0xh5x-------0xh5x--------5x---|
E-------------------------------|

      p      P      P      P P
G|----7------7------7------7-7-------|
D|---------------------------7-------|
A|-5x--5x-5x--5x-5x--5x-5x-----0xh5x-| (play 3x)
E|-----------------------------------|

G|----P----P----P----P-|
D|----6----5----3----2-|
A|---------------------|
E|-4x---3x---1x---0x---|

[Verse 3]
G|-------------------------------------------------------|
D|-----------------3-----------------5-----------------6-|
A|-3h5-3h5-3h5-3h5---3h5-3h5-3h5-3h5---3h5-3h5-3h5-3h5---|continued'
E|-------------------------------------------------------|

G|-------------------|
D|-------------------|
A|-3h5-3h5-3h5-3h5---| (play 2x)
E|-----------------3-|

[Pre-Chorus]
"Just take a moment..."
                                                      P P
G|----------------------------------------------------2-2--|
D|----------------------3-2-0-0-0----------3-0-2-3-2x--2x--|
A|-5-5---5-5-----------------------------------------------|Continued'
E|-----------3-4-5-5--3------------3-4-5-5-----------------|

G|----------------------------------------------|
D|-----------------------3-2-0-0-0--------------|
A|-5-5---5-5------------------------------------|
E|------------3-4-5-5--3------------3-4-5-5-5-5-|

[Chorus]
"In your face..."
G|--------------------------------------------------9-|
D|----------------------------------------------------|
A|---5-7----------------------5-7-------------7x-7x---|
E|-7-----0-0-0-3-0-3-0-0-0--7-----0-0-0-3-0-3---------|

G|-----------------------------------------|
D|-----------------------------------------|
A|---5-7----------------------5-7----------|
E|-7-----0-0-0-3-0-3-0-0-0--7-----0-0--0-0-|



************************************

| h  Hammer-on
| x  Dead note
| P  Pop
| P  
| P P         P P       P 
| xh 

************************************
Suggest correction
comments
print report bad tab
2 comments total.
0 reply
sk8erbassist666 50 Oct 22, 2006 06:53 AM

P-nut uses a five string bass tuned B-E-A-D-G.

0 reply
jak_daniels 20 Dec 01, 2008 08:54 AM

i know that was posted in '06, but wtf man? think YOU could tab that? dude, if this is wrong in any place, i'll be shocked.5 stars.

guest
You may want to rate the tab now too:
select rating
Wanna post a correction for this tab? Suggest correction