Oops, an error
Loading. Please wait.

Freeze Time tab

version 1
version 1

Whole song

Interactive

by 311
9,185 views 18 this week
5 commentsread comments
1 2 3 4 5
x 8
add to favorites
×
Save as Personal and add changes to this tab that will be seen only by you. Learn more ›
×
You can save this tab as Personal to edit and correct it or add notes. All changes will be seen only by you. Learn more »
launch autoscroll
font size
0
reset
how to read this tab
guitar tuner
edit
Autoscroll
slow
fast
+/-
esc
set tempo
stop
  "Freeze Time" by 311
   From the Soundsystem album
 
   Intro, Verse (you can play this part palm muted)
  e------------------------------------
  B------------------------------------
  G------------------------------------
  D----7-6---6----------7-6---6--------
  A--4-5-4-7-4-7-6-7--4-5-4-7-4-7-6-7--
  E--2-----5---5-4-5--2-----5---5-4-5--

   Harmony guitar part(two guitars)
  e-------------------
  B-------------------
  G----7-6---6--------
  D----7-6-7-6-7-6-7\-
  A--9-----7---7-6-7\-
  E--9----------------

   SA verse (you will be immortal man...)
  e-------------------------------
  B-------------------------------
  G-------------------------------
  D-------------------------------
  A--4-4--4-4--4-4--7-7--4-4--X\--
  E--2-2--2-2--2-2--5-5--2-2--X\--

  Here are the fills for the SA verse:
  First Fill:        Second Fill:
  e------            e--------------------
  B--10--            B--------------------
  G---8--            G--------------------
  D------            D----------11----11--
  A------            A--9/11/12----12-----
  E------            E--------------------

  Chorus 
     P.M.---------]
  e--------------------------------------
  B--------------------------------------
  G--------------------------------------
  D--------------------------------------
  A--2-2-2-2-2-2-2-7----7-6-4-6-9-6-4-6--
  E--0-0-0-0-0-0-0-5----5-4-2-4-7-4-2-4--

  Outro 
     P.M.-------]  P.M.-------]  P.M.-------] P.M.-]   P.M.-]
  e------------------------------------------------------------
  B------------------------------------------------------------
  G------------------------------------------------------------
  D------------------------------------------------------------
  A--2-2-2-2-2-2---2-2-2-2-2-2---2-2-2-2-2-2---2-2-2---2-2-2---
  E--0-0-0-0-0-0-5-0-0-0-0-0-0-5-0-0-0-0-0-0-5-0-0-0-5-0-0-0-5-
     P.M.-------]  P.M.-------]  
  e----------------------------------------------------
  B----------------------------------------------------
  G----------------------------------------------------
  D----------------------------------------------------
  A--2-2-2-2-2-2---2-2-2-2-2-2----7-6-4-6-9-6-4-6--4\--
  E--0-0-0-0-0-0-5-0-0-0-0-0-0-0--5-4-2-4-7-4-2-4--2\--

  This is the whole song. It's really simple after 
  you play it a lot. 
  See ya later.

            
            
Suggest correction
Creating personal tab
Creating personal tab
You can edit any tab online and save it as your Personal.

You can edit, replace or remove any tab part or add personal notes – all changes will be seen only by you.

Personal tabs can be accessed anytime from any device, even offline.
Learn more »
comments
print report bad tab
5 comments total. Showing first comments.
0 reply
metalgearmike 10 Nov 18, 2007 11:11 AM

its perfect dude, i jam to it all the time. great job

only thing is i think you forgot one part. like when nick goes
"that's all that it can be... that sense of agony... this life..." before SA's you will be immortal man part. it's easy
to figure out though:

D----------------
A--4--7-7-7-7-7--
E--2--5-5-5-4-5--

0 reply
metalgearmike 10 Nov 18, 2007 11:11 AM

eh, that second to last one should be 4-6

+1 reply
CamelToeJoe 10 Apr 01, 2008 04:08 PM

the intro/verse riff is actually

G----7-6---6----------
D--4-7-6-7-6-7-6-7---------
A--4-5-4-7-4-7-6-7---------
e--2-5-4-5-4-5-4-5---------

guest
Wanna post a correction for this tab? Suggest correction