Oops, an error
Loading. Please wait.

Give Me A Call tab

by 311
2,509 views 1 this week
3 commentsread comments
1 2 3 4 5
1 last vote to show rating
add to favorites
×
Save as Personal and add changes to this tab that will be seen only by you. Learn more ›
×
You can save this tab as Personal to edit and correct it or add notes. All changes will be seen only by you. Learn more »
launch autoscroll
font size
0
reset
how to read this tab
guitar tuner
edit
Autoscroll
slow
fast
+/-
esc
set tempo
stop
Author
Thank You for looking at my tab, since I love this song and I looked all over the
damn place for this song I didnt see it so I decided to tab this myself. Have fun
and enjoy. 311 kicks ass!

**Tabbed by acoustic-freak this is for you girls and guys who like 311**



*Intro/Verse |x12|
E|-------------------------------------------------------------------|
B|-------------------------------------------------------------------|
G|-------------------------------------------------------------------|
D|-------------------------------------------------------------------|
A|-5-------------------------------5---------------------------------|
E|---2-3-5-5-5-5-0-5-5-5-5-5-5-5-----2-3-5-5-5-5-0-5-5-5-5-5-5-5-----|

*Chorus |x4?
E|----------------------------------------------|
B|----------------------------------------------|
G|-------4--------------------------------------|
D|----------------------------------------------|
A|-2-2-2----2-----------------------------------|
E|--------------5-5-5-5-5-4-2-------------------|

E|----------------------------------------------------------------|
B|----------------------------------------------------------------|
G|-4-4-4-4-4-4-4-----------------4-4-4-4-4-4-4--------------------|
D|-4-4-4-4-4-4-4-----------------4-4-4-4-4-4-4--------------------|
A|-2-2-2-2-2-2-2-----------------2-2-2-2-2-2-2--------------------|
E|---------------5-5-5-5-5-4-2-----------------5------------------|

*Bridge |x4|
E|-----------------0-4-----------------0-4-0--------------|
B|--------------------------------------------------------|
G|----3-4-6----3-4---------3-4-6----4-6-------4-3---------|
D|-4--------2-----------4--------2------------------------|
A|--------------------------------------------------------|
E|--------------------------------------------------------|

Bridge (Nick's Part):
E|--------------------------------------------------------|
B|--------------------------------------------------------|
G|---4-4-4---------------4-4-4----------------------------|
D|--------------------------------------------------------|
A|-2-------0-----------2-------0--------------------------|
E|-----------4-4-2-2-------------2-2-2-2-2-2-2-2----------|

E|--------------------------------------------------------|
B|--------------------------------------------------------|
G|---4-4-4---------------4-4-4----------------------------|
D|--------------------------------------------------------|
A|-2-------0-----------2-------0--------------------------|
E|-----------4-4-2-2--------------------------------------|


Fill 1:
E|---------------------------------|
B|---------------------------------|
G|---------------------------------|
D|---------------------------------|
A|---------------------------------|
E|-5-4-2-0--5-4-2-0----------------|


Thank You for looking at my tab, since I love this song and I looked all over the
damn place for this song I didnt see it so I decided to tab this myself. Have fun
and enjoy. 311 kicks ass!

**Tabbed by acoustic-freak this is for you girls and guys who like 311**

            
            
Suggest correction
Creating personal tab
Creating personal tab
You can edit any tab online and save it as your Personal.

You can edit, replace or remove any tab part or add personal notes – all changes will be seen only by you.

Personal tabs can be accessed anytime from any device, even offline.
Learn more »
Give kudos to tab author, rate the tab!
1 2 3 4 5
comments
print report bad tab
3 comments total.
0 reply
jppraterco08 10 Oct 01, 2008 05:42 PM

the shorus is:

d|-------1-----------------
a|-2-2-2---2---------------
e|-----------5-5-5-5-5-4-2-

0 reply
jppraterco08 10 Oct 01, 2008 05:45 PM

and there aren't power chords in the chorus. it's:

d|-----------------------------||-------1-----------------||
a|-5---------------------------||-2-2-2---2---------------||
e|---2-3-5-5-5-5-0-5-5-5-5-5-5-||-----------5-5-5-5-5-4-2-||(distortion)

0 reply
jppraterco08 10 Oct 01, 2008 05:45 PM

and there aren't power chords in the chorus. it's:

d|-----------------------------||-------1-----------------||
a|-5---------------------------||-2-2-2---2---------------||
e|---2-3-5-5-5-5-0-5-5-5-5-5-5-||-----------5-5-5-5-5-4-2-||(distortion)
and i meant to say chorus last time. lol.

guest
You may want to rate the tab now too:
select rating
Wanna post a correction for this tab? Suggest correction