Oops, an error
Loading. Please wait.

Hey You bass

version 1
version 1

Whole song

Interactive

by 311
4,279 views 1 this week
no commentswrite comment
1 2 3 4 5
1 last vote to show rating
add to favorites
×
Save as Personal and add changes to this tab that will be seen only by you. Learn more ›
×
You can save this tab as Personal to edit and correct it or add notes. All changes will be seen only by you. Learn more »
launch autoscroll
font size
0
reset
guitar tuner
edit
Autoscroll
slow
fast
+/-
esc
set tempo
stop
311 - Hey You
From "Uplifter" album
tabbed by jjhand for 5 string bass

I tabbed this using a couple video clips of the band. P-Nut always plays 5-string.
Please rate or comment so others will check it out.

Intro
  play 4x                        Ending: 
G|-----------------------|      ----------------------|--------------------|
D|-----------------------|      ----------------------|--------------------|
A|-----------------------|      ----------------------|--------------------|
E|-----------------------|      ----------------------|--------------------|
B|-4/6-6-6----4--6--8----|      -8----------8---------|-8---------8--------|



Verse 1/2:
G|---------------------------------|-----------------------------|
D|---------------------------------|-----------------------------|
A|---------5-5-------------5-5-----|-----------------------------|
E|-6---6-6-----6-6-5---5-------5-5-|-3---3-----3-2-1---1---1-3-1-|
B|---------------------------------|-----------------------------|

G|---------------------------------|--------------------------------|
D|---------------------------------|-------------------------1-1-1--|
A|---------5-5-------------5-5-----|---------0-0-0---3-3-3----------|
E|-6---6-6-----6-6-5---5-------5-5-|-1-1-1--------------------------|
B|---------------------------------|--------------------------------|


G|---------------------------------|-----------------------------|
D|---------------------------------|-----------------------------|
A|---------5-5-------------5-5-----|---------------1---------1---|
E|-6---6-6-----6-6-5---5-------5-5-|-3---3---1-3-----3---1-3-----|
B|---------------------------------|-----------------------------|

G|---------------------------------|--------------------------------|
D|---------------------------------|-------------------------1-1-1--|
A|---------5-5-------------5-5-----|---------0-0-0---3-3-3----------|
E|-6---6-6-----6-6-5---5-------5-5-|-1-1-1--------------------------|
B|---------------------------------|--------------------------------|



Prechorus:  play 2x
G|--------------------------------|
D|--------------------------------|
A|-----5-7---8-7-------5-7---8-7--|
E|-6---------------6--------------|
B|--------------------------------|



Chorus: play 2x (note different rhythm between 2nd and 4th bar)
G|------------------------------|------------------------------|
D|------------------------------|------------------------------|
A|------------------------------|-3---3------------------------|
E|-3---3---1-1---3---3---1-1--1-|---------1-1---3---3---3-3--3-|
B|------------------------------|------------------------------|

G|------------------------------|------------------------------||
D|------------------------------|------------------------------||
A|------------------------------|-3---3------------------------||
E|-3---3---1-1---3---3---1-1--1-|---------1-1---3---3---3---3--||
B|------------------------------|------------------------------||

End Chorus:   play 2x
G|---------------------------------|
D|---------------------------------|
A|---------------------------------|
E|-2-2-2-2-2---2-2-2-2-2-2-2---2-2-|
B|-----------2---------------2-----|



Play Verse through chorus again



Interlude - notes in () are held over from the previous bar
G|-------------|--------------|--------------|----------------|
D|-------------|--------------|--------------|----------------|
A|-------------|--------------|--------------|----------------|
E|-------------|--------------|-2------------|-(2)------------|
B|-2-----------|-(2)----------|--------------|----------------|


G|-------------|--------------|--------------|----------------|
D|-------------|--------------|--------------|----------------|
A|-------------|--------------|--------------|----------------|
E|-------------|--------------|--------------|----------------|
B|-2-----------|-(2)-----2--1-|-0------------|-(0)------------|


G|-------------|--------------|--------------|----------------|
D|-------------|--------------|--------------|----------------|
A|-------------|--------------|--------------|----------------|
E|-2-----------|-(2)-----2--3-|-4------------|-(4)------------|
B|-------------|--------------|--------------|----------------|

G|-------------------|------------------------|
D|-------------------|------------------------|
A|-------------------|------------------------|
E|-------------------|---------/7-7-7-7-7-7-7-|
B|-2-----------2--1--|-0----------------------|


Play Chorus with added rests, check the song to get rhythm right.

Play chorus again normal


Outro riff:
G|---------------------------|----------------------------|----------|
D|---------------------------|----------------------------|----------|
A|----4-6--7-6-----4-6--7-6--|----4-6--7-6------4-6--7-6--|----------|
E|-5-------------5-----------|-5-------------5------------|-2--------|
B|---------------------------|----------------------------|----------|


Key:
| /  slide up
| \  slide down
| h  hammer-on
| p  pull-off
| ~  vibrato
| () hold previous note into next bar
| x  Mute note

            
            
Suggest correction
Creating personal tab
Creating personal tab
You can edit any tab online and save it as your Personal.

You can edit, replace or remove any tab part or add personal notes – all changes will be seen only by you.

Personal tabs can be accessed anytime from any device, even offline.
Learn more »
Give kudos to tab author, rate the tab!
1 2 3 4 5
comments
print report bad tab
guest
You may want to rate the tab now too:
select rating
Wanna post a correction for this tab? Suggest correction