Oops, an error
Loading. Please wait.

India Ink tab

version 2
version 2

Whole song

by 311
1,752 views 1 this week
no commentswrite comment
1 2 3 4 5
x 3
add to favorites
×
Save as Personal and add changes to this tab that will be seen only by you. Learn more ›
×
You can save this tab as Personal to edit and correct it or add notes. All changes will be seen only by you. Learn more »
launch autoscroll
font size
0
reset
how to read this tab
guitar tuner
edit
Autoscroll
slow
fast
+/-
esc
set tempo
stop
Author
Difficulty
311 - "India Ink"
From 'Uplifter' Album
Standard Tuning
tabbed by jjhand, with heavy distortion throughout


This song sounds like a low-tuned guitar but thanks to youtube I noticed
that Tim Mahoney was playing his normal PRS guitar in the concert footage. 
P-nut must be playing the low notes of the chords on his bass I guess. 
I tabbed it in standard, so please rate and comment.


Intro:
  Bb C            play 4x
e|--------------------------|
B|--------------------------|
G|--------------------------|
D|--------------------------|
A|-1-3-3--3--3--3--3--3--3--| on last time the rhythm stops on 3rd beat
E|-1-3-3--3--3--3--3--3--3--|
   PM all notes





Verse:        
Part 1, play this 4x:              Part 2
e|--------------------------|      |----------------------------|----------------------------|
B|--------------------------|      |----------------------------|----------------------------|
G|--------------------------|      |----------------------------|----------------------------|
D|--------------------------|      |----------------------------|----------------------------|
A|-1h3-------1-1h3----------|      |-x-1-1--x-x-1--x-x-1--x-x-x-|-x-1-1--x-x-1--x-x-1--1-1-1-|
E|-1h3-------1-1h3----------|      |-x-1-1--x-x-1--x-x-1--x-x-x-|-x-1-1--x-x-1--x-x-1--1-1-1-|
     mute each note lightly after playing

Play Part 1 again 4x, then Part 2 again 2x 





Chorus:       play 4x with rhythm changes in the second bar
e|-------------------------|-------------------------|
B|-------------------------|-------------------------|
G|-------------------------|-5--5--5--5--5--5--5--5--|
D|-------------------------|-5--5--5--5--5--5--5--5--|
A|-6--6--6--6--8--8--8--8--|-3--3--3--3--3--3--3--3--|
E|-6--6--6--6--8--8--8--8--|-3--3--3--3--3--3--3--3--|




Repeat Verse


Repeat Chorus 


Bridge - Guitar w/ wah, second guitar strums these chords
   F       Eb        C7
e|-----------------|--------------------|
B|-----------------|--------------------| play this 4x
G|-2-------0-------|-3------------------|
D|-3-------1-------|-2------------------|
A|-3-------1-------|-3------------------|
E|-----------------|--------------------|

   Sitar part (actual sitar, or digital effect used), play during the bridge

   1.                    2.                    3.
e|---------------------|-----------6-5-------|-----------5----------------------------|
B|-6h8-6-5-6-6h8-6-5---|-6h8-6-5-8-----8-5---|-6h8-6-5-6---8-6-5----------------------|
G|---------------------|---------------------|-------------------5----7----5-5-5-5-5\-|
D|---------------------|---------------------|----------------------------------------|
A|---------------------|---------------------|----------------------------------------|
E|---------------------|---------------------|----------------------------------------|



Bridge Part 2,   play 4x
   G     C     Bb    Eb      G
e|-------------------------|----------------------|
B|-------------------------|----------------------|
G|-------5-5---------8-8---|----------------------|
D|-5-5---5-5---8-8---8-8---|-5-5-------5-5-5------|
A|-5-5---3-3---8-8---6-6---|-5-5-------5-5-5------|
E|-3-3---------6-6---------|-3-3-------3-3-3------|




Repeat Chorus 2x and play the final chord a few times at the ending



Key:
| /  slide up
| \  slide down
| h  hammer-on
| p  pull-off
| ~  vibrato
| x  Mute note

            
            
Suggest correction
Creating personal tab
Creating personal tab
You can edit any tab online and save it as your Personal.

You can edit, replace or remove any tab part or add personal notes – all changes will be seen only by you.

Personal tabs can be accessed anytime from any device, even offline.
Learn more »
Give kudos to tab author, rate the tab!
1 2 3 4 5
comments
print report bad tab
guest
You may want to rate the tab now too:
select rating
Wanna post a correction for this tab? Suggest correction