Oops, an error
Loading. Please wait.

Misdirected Hostility Tab

version 1
version 1

Whole song

Interactive

by 311
3,321 views 1 this week
1 commentread comment
1 2 3 4 5
1 last vote to show rating
add to favorites
×
Save as Personal and add changes to this tab that will be seen only by you. Learn more ›
×
You can save this tab as Personal to edit and correct it or add notes. All changes will be seen only by you. Learn more »
save as personal
new!
launch autoscroll
font size
0
reset
how to read this tab
guitar tuner
Autoscroll
slow
fast
+/-
esc
set tempo
stop
311
Misdirected Hostility

Intro
E|------------------------------------------------------------|
B|-7-5--------------------5---------7-5-----------------------|
G|-----7--5-5h7h5-----5-7---7-5-7-------7--5-5h7h5---5--------|
D|----------------7--------------------------------7---7-5-4--|
A|------------------------------------------------------------|
D|------------------------------------------------------------|

Part 1
E|----------/-----------------------------------------|
B|----------/-----------------------------------------|
G|-7-----5--/-7--7s2----------------------------------|
D|-7---7-5--/-7--7s2----------------------------------|
A|-5---7-3--/-5—-5s0----------------------------------|
D|-----7----/-----------------------------------------|

Part 2
E|----------------------------------------------------|
B|----------------------------------------------------|
G|----------------------------------------------------|
D|-8-x-8--5-8-10-8------------------------------------|
A|-8-x-8--5-8-10-8------------------------------------|
D|-8-x-8--5-8-10-8------------------------------------|

Part 1

Part 3
E|----------------------------------------------------|
B|----------------------------------------------------|
G|------------------5-4-5-6-5-4-5-/-5-4-5--5-4-5------|
D|-2-3-2--2-2-11s0--5-4-5-6-5-4-5-/-5-4-5--5-4-5------|
A|-2-3-2--2-2-11s0--3-2-3-4-3-2-3-/-3-2-3--3-2-3------|
D|-2-3-2--2-2-11s0------------------------------------|
         (pm)
Part 1
Part 2
Part 1

Part 4 
E|----------------------------------------------------|
B|----------------------------------------------------|
G|----------------------------------------------------|
D|-3-3-3-3-3--3-3-3-3-3-3-3---------------------------|
A|-3-3-3-3-3--3-3-3-3-3-3-3---------------------------|
D|-3-3-3-3-3--3-3-3-3-3-3-3---------------------------|

Part 1
Part 2
Part 1
Part 3

This isn't 100% correct, but pretty close, 
so use it as a base and correct it however you want...
Suggest correction
Give kudos to tab author, rate the tab!
1 2 3 4 5
comments
print report bad tab
1 comment total.
0 reply
Brodel 303 Oct 23, 2007 03:54 PM

perfect,but the drop D is not necessery...

should go like this for the people wanting the non drop D version..

Part 1
E|----------/-----------------------------------------|
B|----------/-----------------------------------------|
G|-7-----5--/-7--7s2----------------------------------|
D|-7---7-5--/-7--7s2----------------------------------|
A|-5---7-3--/-5—-5s0----------------------------------|
D|-----5----/-----------------------------------------|

Part 2
E|----------------------------------------------------|
B|----------------------------------------------------|
G|----------------------------------------------------|
D|-8-x-8--5-8-10-8------------------------------------|
A|-8-x-8--5-8-10-8------------------------------------|
D|-6-x-6--3-6--8-6------------------------------------|

Part 1

Part 3
E|----------------------------------------------------|
B|----------------------------------------------------|
G|------------------5-4-5-6-5-4-5-/-5-4-5--5-4-5------|
D|-2-3-2--2-2-------5-4-5-6-5-4-5-/-5-4-5--5-4-5------|
A|-2-3-2--2-2-------3-2-3-4-3-2-3-/-3-2-3--3-2-3------|
D|-0-1-0--0-0-----------------------------------------|
(pm)
Part 1
Part 2
Part 1

Part 4
E|----------------------------------------------------|
B|----------------------------------------------------|
G|----------------------------------------------------|
D|-3-3-3-3-3--3-3-3-3-3-3-3---------------------------|
A|-3-3-3-3-3--3-3-3-3-3-3-3---------------------------|
D|-1-1-1-1-1--1-1-1-1-1-1-1---------------------------|

guest
Wanna post a correction for this tab? Suggest correction