Oops, an error
Loading. Please wait.

Sometimes Jacks Rule The Realm Tab

version 2
version 2

Whole song

Interactive

by 311
710 views 1 this week
no commentswrite comment
1 2 3 4 5
3 more votes to show rating
add to favorites
×
Save as Personal and add changes to this tab that will be seen only by you. Learn more ›
×
You can save this tab as Personal to edit and correct it or add notes. All changes will be seen only by you. Learn more »
save as personal
new!
launch autoscroll
font size
0
reset
how to read this tab
guitar tuner
Autoscroll
slow
fast
+/-
esc
set tempo
stop
Author
Artist:311
Song: Sometimes Jacks Rule the Realm
Album: Evolver

~!~ yea i tabbed the other one too but I wanted to add that there might be a few
errors on this so if anyone sees any feel free to correct it! I'd be happy cuz I
wana kno the correct way to play it too :) e-mail me if you'd like to let me know kikicava02@hotmail.com



*~** ENDING **~* this can be heard about a minute after the song ends

Ok this part is finger plucked, and after playing Riff 1 and 2 repeat them , as noted.

Riff 1
E|----------------------------------------------------------------||
B|------1-------1-------------------------1-------1---------------||
G|-----------------------0-0h2p0---------------------------0---2--||
D|---2-------0---------2---------2-----2-------0---------2---2----||
A|-3-------2------0------------------3-------2-------0------------||
E|----------------------------------------------------------------||

Riff 2

E|-----------------------------------------------------------------| |
B|------1-3-1—1p0--------------------------------------------------|.|
G|----------------2p0-----------2-0--------------------------------| |
D|---2----------------2-2/3-----------0-2-2p3-3-2-2----------------|.|
A|-3------------------------\3------0----------------0-2-3---------| |
E|-----------------------------------------------------------------| |

(*note* play the A and D strings real quickly here with a lot of emphasis on the -1-3-1 on the B string)


Riff 3

E|-----------------------------------------------------------------||
B|------1-------1------------1---------1---------------------------||
G|--------------------------------------------2-0------------------||
D|---2-------0------------2---------0-------------0-2-2/3-3--------||
A|-3-------2-------0----3---------2-------0------------------------||
E|-----------------------------------------------------------------||

E|-----------------------------------------------------------------||
B|------1--------1---------1----------0----------------------------||
G|-------------------------------0----0----------------------------||
D|---2--------0----------------------------------------------------||
A|-3--------2--------0-----3-----3---------------------------------||
E|-----------------------------------------------------------------||

order to play:
Riff 1
Riff 2
Riff 1
Riff 2
Riff 3
Suggest correction
Give kudos to tab author, rate the tab!
1 2 3 4 5
comments
print report bad tab
guest
You may want to rate the tab now too:
select rating
Wanna post a correction for this tab? Suggest correction