Oops, an error
Loading. Please wait.

This Too Shall Pass bass

version 2
version 2

Whole song

by 311
1,214 views 1 this week
1 commentread comment
1 2 3 4 5
x 4
add to favorites
×
Save as Personal and add changes to this tab that will be seen only by you. Learn more ›
×
You can save this tab as Personal to edit and correct it or add notes. All changes will be seen only by you. Learn more »
launch autoscroll
font size
0
reset
guitar tuner
edit
Autoscroll
slow
fast
+/-
esc
set tempo
stop
Author
Difficulty
Artist:311
Song:This Too Shall Pass
Album:Omaha Sessions

This song is playede with two basses in it so there are two parts, every tab i find for
song is wrong and sounds nothing like the song so i decided to tab it out. This is the
time i have tabbed out a song and i picked a real doosy to do but it had to be done. 
is also for 4 string, i had to replace one note in the song because i had no fifth string
dosnt sound that bad.

P-nut's part(1)

               p
G|-7--7--7--7--6h7p6-|
D|-------------------|
A|-5--5--5--5--------|
E|-------------------|

G|-13-13-16-13-14-11-14-13----------------13-13-16-13-14-11-14-13---------|
D|-------------------------14-12-16------------------------------14-12-16-|
A|-----------------------------------14~~---------------------------------|
E|------------------------------------------------------------------------|

G|------13-13-16-13-14-11-14-13-------------13-13-16-13-14--14-18-16-13---|
D|-----------------------------14-12-16---------------------------------14|
A|-14~~--------------------------------14~~-------------------------------|
E|------------------------------------------------------------------------|

G|-13---------|
D|----14------|
A|-------14---| X2
E|------------|

Bridge Thing(1:00)

G|------------------------------------------------------------------|
D|---2---------------2----------------2---------------2-------------|
A|-4---4---2---2h4-4---4----2x-2h4--4---4---2---2h4-4---4-2222------|
E|-------4---4-----------4x---------------4---4---------------------|

verse (1:15)

G|-13-13-16-13-14-11-14-13----------------13-13-16-13-14-11-14-13---------|
D|-------------------------14-12-16------------------------------14-12-16-|
A|-----------------------------------14~~---------------------------------|
E|------------------------------------------------------------------------|

G|------13-13-16-13-14-11-14-13-------------13-13-16-13-14--14-18-16-13---|
D|-----------------------------14-12-16---------------------------------14|
A|-14~~--------------------------------14~~-------------------------------|
E|------------------------------------------------------------------------|

G|-13---------|
D|----14------|
A|-------14---|
E|------------|


Other Bridge thing (1:29)
                                                              p p
G|------------------------------------------------------------6-7------------|
D|---------------------------------------------------------------------------|
A|-77777-5-4-5----77777-5-4-5---5--77777-5-4-5----77777-5-4-5------77777-5-4-|
E|----------------------------0----------------------------------------------|

|------------|
|------------|
|-10-9-------| x2
|------10-11-|


First Solo (1:58)

    p p p p p   p p p p   p p p p p    p p           p p  p  p  p
G|--9-7-6-7-6---9-7-6-0---9-7-6-7-6----9-7-----------9-11-12-11-12---|
D|-------------------------------------------------------------------|
A|---------------------------------------------5-7-------------------|
E|-0-0-0-0-0---0-0-0-0---0-0-0-0-0----0-0---5-7-----0-0--0--0--0-----|
   s s s s s   s s s s   s s s s s    s s           s s  s  s  s

    p p  p  p   p p  p  p  p
G|--9-11-12-0---9-11-12-11-12-----|
D|--------------------------------|
A|--------------------------------|
E|-0-0--0--0---0-0--0--0--0---0---|
   s s  s  s   s s  s  s  s   s


verse (2:11)

G|-13-13-16-13-14-11-14-13----------------13-13-16-13-14-11-14-13---------|
D|-------------------------14-12-16------------------------------14-12-16-|
A|-----------------------------------14~~---------------------------------|
E|------------------------------------------------------------------------|

G|------13-13-16-13-14-11-14-13-------------13-13-16-13-14--14-18-16-13---|
D|-----------------------------14-12-16---------------------------------14|
A|-14~~--------------------------------14~~-------------------------------|
E|------------------------------------------------------------------------|

G|-13---------|
D|----14------|
A|-------14---|
E|------------|


First bridge thing again (2:41)
verse 1 time through alst ending (2222) (2:56)
Other bridge thing again (3:11)

End Solo (3:39)

G|--9-7-6-7-6---9-7-6-0---9-7-6-7-6----9-7-----------9-11-12-11-12---|
D|-------------------------------------------------------------------|
A|---------------------------------------------5-7-------------------|
E|-0-0-0-0-0---0-0-0-0---0-0-0-0-0----0-0---5-7-----0-0--0--0--0-----|
   s s s s s   s s s s   s s s s s    s s           s s  s  s  s

    p p  p  p   p p  p  p  p              p p  p  p  p    p p  p  p   p p
G|--9-11-12-0---9-11-12-11-12-------------9-11-12-11-12---9-11-12-0---9-11-|
D|-------------------------------------------------------------------------|
A|----------------------------------5-7------------------------------------|
E|-0-0--0--0---0-0--0--0--0--0---5-7-----0-0--0--0--0----0-0--0--0---0-0---|
   s s  s  s   s s  s  s  s  s           s s  s  s  s    s s  s  s   s s

G|--12-11-12---9-11---------| repeat the higher part till the end
D|--------------------------|
A|----------------------7-5-|
E|-0--0--0--0--------5-7----|


ending

G|----------|
D|----------|
A|----7-5---|
E|-5-7----0-|


Key:
h=hammer on
p=pull off
x=rest

....this song is passed......

            
            
Suggest correction
Creating personal tab
Creating personal tab
You can edit any tab online and save it as your Personal.

You can edit, replace or remove any tab part or add personal notes – all changes will be seen only by you.

Personal tabs can be accessed anytime from any device, even offline.
Learn more »
comments
print report bad tab
1 comment total.
0 reply
mkorklan 10 Dec 13, 2007 03:29 PM

Thank you for tabbing this difficult song

guest
You may want to rate the tab now too:
select rating
Wanna post a correction for this tab? Suggest correction