Oops, an error
Loading. Please wait.

What Was I Thinking bass

version 2
version 2

Whole song

Interactive

by 311
3,090 views 9 this week
3 commentsread comments
1 2 3 4 5
x 3
add to favorites
×
Save as Personal and add changes to this tab that will be seen only by you. Learn more ›
×
You can save this tab as Personal to edit and correct it or add notes. All changes will be seen only by you. Learn more »
launch autoscroll
font size
0
reset
guitar tuner
edit
Autoscroll
slow
fast
+/-
esc
set tempo
stop
Artist: 311
Song: What Was I Thinking
Album: Transistor (1997)
Bassist: P-Nut
Tuning: B-E-A-D-G
Notes:

Intro:                v - This mute is over the 7th fret so it should
                            sound a bit harmonic
G|--------------------x---7h9--|
D|-----------------------------|
A|-----------------------------|
E|--0-0-x-0-x-0-0hx-x---x------|
B|-----------------------------| (x12)
    S S S S S S S S S P S P

Verse 1:
G|-----------------------------------|
D|-----------------------------------|
A|-----------------------------------|
E|--1-x-x-1-x-x-x-x-1-x-x-1-x-x-x-x--|
B|-----------------------------------| (x2)
    S S S S S S S S S S S S S S S S

G|--------------------x---7h9--|
D|-----------------------------|
A|-----------------------------|
E|--0-0-x-0-x-0-0hx-x---x------|
B|-----------------------------| (x4)
    S S S S S S S S S P S P

G|-----------------------------------|
D|-----------------------------------|
A|-----------------------------------|
E|--1-x-x-1-x-x-x-x-1-x-x-1-x-x-x-x--|
B|-----------------------------------| (x2)
    S S S S S S S S S S S S S S S S

G|--------------------x---7h9--|
D|-----------------------------|
A|-----------------------------|
E|--0-0-x-0-x-0-0hx-x---x------|
B|-----------------------------| (x4)
    S S S S S S S S S P S P


Chorus:
G|-------------------------------------------------------|
D|-------------------------------------------------------|
A|-------------------------------------------------------|
E|-----2-2--2--------2-2--2--------2-2--2--------2-2--2--|
B|-------------------------------------------------------|

G|----------------------------------------------------------|
D|----------------------------------------------------------|
A|----------------------------------------------------------|
E|--2--2-2--2--2--2--2-2--2--2--2--2-2--2--2--2--2-2--2--2--|
B|----------------------------------------------------------|

G|-----------------------------------------------------------|
D|-----------------------------------------------------------|
A|----------5-7---------5-7---------------5-7---------5-7----|
E|--0-5-7-0-----0-5-7-0-----0-575-0-5-7-0-----0-5-7-0-----0--|
B|-----------------------------------------------------------| (x2)


Verse 2:
G|-----------------------------------|
D|-----------------------------------|
A|-----------------------------------|
E|--1-x-x-1-x-x-x-x-1-x-x-1-x-x-x-x--|
B|-----------------------------------| (x2)
    S S S S S S S S S S S S S S S S

G|--------------------x---7h9--|
D|-----------------------------|
A|-----------------------------|
E|--0-0-x-0-x-0-0hx-x---x------|
B|-----------------------------| (x4)
    S S S S S S S S S P S P

G|-----------------------------------|
D|-----------------------------------|
A|-----------------------------------|
E|--1-x-x-1-x-x-x-x-1-x-x-1-x-x-x-x--|
B|-----------------------------------| (x2)
    S S S S S S S S S S S S S S S S

G|--------------------x---7h9--|
D|-----------------------------|
A|-----------------------------|
E|--0-0-x-0-x-0-0hx-x---x------|
B|-----------------------------| (x4)
    S S S S S S S S S P S P


Chorus/Outro:
G|-------------------------------------------------------|
D|-------------------------------------------------------|
A|-------------------------------------------------------|
E|-----2-2--2--------2-2--2--------2-2--2--------2-2--2--|
B|-------------------------------------------------------|

G|----------------------------------------------------------|
D|----------------------------------------------------------|
A|--4--4-4--4--4--4--4-4--4--4--4--4-4--4--4--4--4-4--4--4--|
E|--2--2-2--2--2--2--2-2--2--2--2--2-2--2--2--2--2-2--2--2--|
B|----------------------------------------------------------|

G|-----------------------------------------------------------|
D|-----------------------------------------------------------|
A|----------5-7---------5-7---------------5-7---------5-7----|
E|--0-5-7-0-----0-5-7-0-----0-575-0-5-7-0-----0-5-7-0-----0--|
B|-----------------------------------------------------------| (x2)

            
            
Suggest correction
Creating personal tab
Creating personal tab
You can edit any tab online and save it as your Personal.

You can edit, replace or remove any tab part or add personal notes – all changes will be seen only by you.

Personal tabs can be accessed anytime from any device, even offline.
Learn more »
Give kudos to tab author, rate the tab!
1 2 3 4 5
comments
print report bad tab
3 comments total.
0 reply
drunk guitarist 70 Mar 09, 2006 01:18 PM

i think there is an open after every 1 on the verse, but im probably wrong. anyways, nice tab

0 reply
Angel aka alaab 10 Apr 06, 2009 06:49 PM

nice tab, but why'd you add the extra string if he doesn't use it?

0 reply
MajinStylee 22,783 Jul 21, 2010 05:09 PM

^For consistency. P-nut always uses a 5-string bass, so this reflects what *he* plays.

guest
Wanna post a correction for this tab? Suggest correction