Oops, an error
Loading. Please wait.

17 Tab

77 views 1 this week
no commentswrite comment
1 2 3 4 5
2 more votes to show rating
add to favorites
launch autoscroll
font size
0
reset
how to read this tab
guitar tuner
Autoscroll
slow
fast
+/-
esc
set tempo
stop
Help us to improve Ultimate-Guitar.com Take our survey!
×
Author
----------------------------------------------------------------------------
                             17 - 33 West
----------------------------------------------------------------------------

Standard Tuning
 
  Intro: Clean Guitar
e|------------------------------------------------------------------------|
B|------------------------------------------------------------------------|
G|-----0--------0----------0--------0----------0-------0---------0-----0--|
D|---4---4----4---4------5---5----5---5------4---4---4---4------0-0---0-0-|
A|-5--------5-------5--7--------7-------7--2-------2-------2--------------|
E|------------------------------------------------------------3-----5-----|

                                                               Distorted  
e|-----------------------------------------------------------(-------------|
B|-----------------------------------------------------------(-------------|
G|-----0--------0----------0--------0----------0-------0-----(-------------|
D|---4---4----4---4------5---5----5---5------4---4---4---4---(---5----7----|
A|-5--------5-------5--7--------7-------7--2-------2-------2-(---5----7----|
E|-----------------------------------------------------------(---3----5----|

         
This was the really cool horns part. Since most bands don't have horns players
I just tabbed the horn line for guitar. 

    Dmaj       Emaj       Bmin       Amaj   
e|------------------------------------------------|
B|------------------------------------------------|
G|--11---12-11-9----12-11-7-----12-11-9----7-9----|
D|------------------------------------------------|
A|------------------------------------------------|
E|------------------------------------------------|

  Pre-Verse (Be sure to make pauses)
    Dmaj            Emaj            Bmin            Amaj
e|-------------------------------------------------------------------|
B|-------------------------------------------------------------------|
G|--7-7-7-7-7-7-7-7-9-9-9-9-9-9-9-9-4-4-4-4-4-4-4-4-2-2-2-2-2-2-2-2--|
D|--7-7-7-7-7-7-7-7-9-9-9-9-9-9-9-9-4-4-4-4-4-4-4-4-2-2-2-2-2-2-2-2--|
A|--5-5-5-5-5-5-5-5-7-7-7-7-7-7-7-7-2-2-2-2-2-2-2-2-0-0-0-0-0-0-0-0--|
E|-------------------------------------------------------------------|






  Verse: Harmonic         Strumming
e|----------------------|------------------------------------|
B|---------7------------|------------------------------------|
G|----7-------5---7-----|--4-4-4-4-4-4-4-4--2-2-2-2-2-2-2-2--|  Play
D|-------7-----------7--|--4-4-4-4-4-4-4-4--2-2-2-2-2-2-2-2--|  Twice 
A|----------------------|--2-2-2-2-2-2-2-2--0-0-0-0-0-0-0-0--|
E|----------------------|------------------------------------|



Pre-Chorus
   Gmaj              F#min  Amaj  
e|-------------------------------------------------------|
B|-------------------------------------------------------|
G|-12-12-12-12-12-12-11--11-14-14-14-14-14-14-14-14------|   Play
D|-xx-xx-xx-xx-xx-xx-xx--xx-xx-xx-xx-xx-xx-xx-xx-xx------|   Twice
A|-10-10-10-10-10-10--9--9--12-12-12-12-12-12-12-12------|
E|-------------------------------------------------------|


Chorus
    Dmaj        Bmin      Gmaj F#min Amaj
e|----------------------------------------------|
B|----------------------------------------------|
G|--7-7-7-- 11--4-4-4-4-------------------------|  Play Twice
D|--7-7-7---x---4-4-4-4---5-5-5-4-7-7-7-7-------|
A|--5-5-5---9---2-2-2-2---5-5-5-4-7-7-7-7-------|
E|------------------------3-3-3-2-5-5-5-5-------|



Bridge (Chords over solo)
   Emaj   Bmin    C#maj     !!!Use Octaves for quick riff!!!
e|---------------------------------------------------------------------|
B|---------------------------------------------------------------------|
G|---------4-4-4---6-6-6-----------------------------------------------|Play
D|-2-2-2---4-4-4---6-6-6-----------------------------------------------|Twice
A|-2-2-2---2-2-2---4-4-4----11-11-11-12-12-12-9-9-9-11-11-11-7-7-9-9---|
E|-0-0-0---------------------------------------------------------------|

   Dmaj              Amaj            Bmin
e|-----------------------------------------------|
B|-----------------------------------------------|
G|-7-7-7-7-7-7--6-6-------------------4-4-4-4----|   
D|-7-7-7-7-7-7--7-7--7-7-7-7-7-7-7-7--4-4-4-4----|
A|-5-5-5-5-5-5--4-4--7-7-7-7-7-7-7-7--2-2-2-2----|
E|-------------------5-5-5-5-5-5-5-5-------------|
                        
                          !!!Octaves on quick riff!!!
e|-------------------------------------------------------------|
B|-------------------------------------------------------------|
G|-------------------------------------------------------------| Play 
D|---9-7---7---------------------------------------------------| Twice
A|-------9---9-8-7-------9-9-9-10-10-10-7-7-7-9-9-9-5-5-7-7-5--|
E|-----------------10------------------------------------------|



Outro (Clean Guitar)
e|----------------------------------------------------------------------|
B|------7--------7--------7-------7--------7-------7--------7-------7---|
G|--7--------7--------6-------6--------4-------4--------6-------6-------|
D|----7---7----7---7----7---7---7---7----4---4---4---4----4---4---4---4-|
A|----------------------------------------------------------------------|
E|----------------------------------------------------------------------|


e|-0-0-0-0--0-0-0-0--0-0-0-0--0-0-0-0-----|
B|-0-0-0-0--0-0-0-0--0-0-0-0--0-0-0-0-----|
G|-7-7-7-7--6-6-6-6--4-4-4-4--2-2-2-2-----|
D|-7-7-7-7--7-7-7-7--4-4-4-4--2-2-2-2-----|
A|-5-5-5-5--4-4-4-4--2-2-2-2--0-0-0-0-----|
E|----------------------------------------|


This is a great song. Be sure to check out 33 West.

Tabbed by Chuckjr5421

============================================================================


 
Suggest correction
Give kudos to tab author, rate the tab!
1 2 3 4 5
comments
print report bad tab
guest
You may want to rate the tab now too:
select rating
Wanna post a correction for this tab? Suggest correction