Oops, an error
Loading. Please wait.

Sandra tab

version 1
version 1

Whole song

Interactive

10,493 views 36 this week
1 commentread comment
1 2 3 4 5
x 5
add to favorites
×
Save as Personal and add changes to this tab that will be seen only by you. Learn more ›
×
You can save this tab as Personal to edit and correct it or add notes. All changes will be seen only by you. Learn more »
launch autoscroll
font size
0
reset
how to read this tab
guitar tuner
edit
Autoscroll
slow
fast
+/-
esc
set tempo
stop
Difficulty
Intro:
e----------------------------------------------------------|
B----------------------------------------------------------|
G----0---------0----------0---------------0----------------|
D------5---------5----------5------------------------------|
A--------5---------5---3------5-----3--5-----5-------------|
E—3----------o---------------------------------------------|

Verse 1:
G                 Em               C            D
Sandra portami al mare compriamo il pane e un forellino
G                 Em              C          D
bella cuore di panna Cuba in Romagna cioccolatino
G                 Em            C         D
prendi tutte le cose tutti i colori di questo giorno qua


e----------------------------------------------------------|
B----------------------------------------------------------|
G----0---------0----------0-------0------0-----0------0----|
D------5---------5----------5-------5------5-----5---------|
A--------5---------5---3------5-------5------5-----5-------|
E—3----------o---------------------------------------------|

Same chords as verse 1


Verse 2:
Sandra sai di nutella pelle che brilla ti spalmo il miele
guarda che arriva l'onda mora e gioconda distesa al sole
perso nelle tue pose nei tuoi sapori come un bambino
specchio nelle mie brame chiottola il pane sul forellino

Chorus:
C                G             C         D
Sandra alza la radio dammi la mano come corre il tempo
C              G              C          D
bella senza rimedio Cuba è vicino amore controvento
G                Em               C             D
lascia mille sorrisi i tuoi paradisi ancora un altro giorno
G             Em               C       D
Sandra cede calore portami al mare al tuo ritorno

Verse 3:
Sandra la notte è finita evviva la vita e stiamo ancora insieme
lascia i brutti pensieri di oggi e di ieri che adesso ho fame
bella come nessuno sento il profumo viene dal giardino forse non sei tu ma il pane che 
sul forellino

Then the chorus

And then this
C                       G                C
Sai che in fondo la vita, crea le distanze, ma in
 D
questo sogno
C                     G              D
Sandra, forse ho bisogno, solo di te....

Chorus x2

That’s all it’s an easy but great song

It’s my first tab so please rate

            
            
Suggest correction
Creating personal tab
Creating personal tab
You can edit any tab online and save it as your Personal.

You can edit, replace or remove any tab part or add personal notes – all changes will be seen only by you.

Personal tabs can be accessed anytime from any device, even offline.
Learn more »
comments
print report bad tab
1 comment total.
0 reply
thewing 10 Sep 02, 2015 01:36 AM

In my opinion, intro should go rather like this:
|---------------------------------
|---------------------------------
|----0-------0-------0---------0--
|------0-------0-------0-----4---4
|--------2-------2-3-----2-5------
|--3-------0----------------------

guest
Wanna post a correction for this tab? Suggest correction