Oops, an error
Loading. Please wait.

Aurora Tab

version 2
version 2

Whole song

Interactive

2,268 views 3 this week
1 commentread comment
1 2 3 4 5
please rate
add to favorites
launch autoscroll
font size
0
reset
how to read this tab
guitar tuner
Autoscroll
slow
fast
+/-
esc
set tempo
stop
Help us to improve Ultimate-Guitar.com Take our survey!
×
Author
Difficulty
intermediate
Aurora
36 Crazyfists
Rest Inside The Flames
Drop C- CGCFAD

-Intro-
Gtr 1,2- Distortion
D||-----------------------------------------------------------|
A||o-------------------6----------------------------6---------|
F||---------10-9\---/9---9-----9---------10-9\---/9---9-----9-|
C||---------x--x-----------7-8-----------x--x-----------7-8---|
G||o-0-0-0--8--7\-----------------0-0-0--8--7\----------------|
C||--0-0-0------------------------0-0-0-----------------------|
     pm- -                        - - -
D|-------------------------------------------------||
A|------------------------------------------------o||
F|--------10-10--10-10-9-9-9--9--9-9-12-12-12--12--||
C|-0-0-0--8--8---8--8--7-7-7--7--7-7-10-10-10--10--||
G|-0-0-0--8--8---8--8--7-7-7--7--7-7-10-10-10--10-o||
C|-0-0-0--8--8---8--8--7-7-7--7--7-7-10-10-10--10--||
   - - -         -  -  - - -     - - -  -  -

-Verse-
D||---------------------------------------------------||
A||o----10----10----10----10----10----10----10----10-o||
F||--------13----------13----------13----------13-----||
C||--12----------13----------12----------13-----------||
G||o-------------------------------------------------o||
C||---------------------------------------------------||
"...Are you comfortable with the skin you're in?
....Are you screamin' loud enough to be important?
Are you following the path that you thought, you woooould or woooouldn't?"

D|-------------------------------------------------|
A|----------------------------ph-------------------|
F|-----10----10----10\--9-9--10*~~----10----10-----|
C|-0-8-8--0--8--0--8\---7-7--------0--8--0--8--10\-|
G|-0-8-8--0--8--0--8\---7-7--------0--8--0--8--10\-|
C|-0-8-8--0--8--0--8\---7-7--------0--8--0--8--10\-|
   pm-    -     -       - -        -     -
"...And you backed it all along pulling from what's inside, it's honest there."

D|-----------------------------------------------------------------------|
A|-----------------------------------------------------------------------|
F|-9-9-7-7-5-5-2-2-10-10-10-10-10-10-9-9-7-7-5-5-2-2-10-10-10-10-10-9-10-|
C|-7-7-5-5-3-3-0-0-8--8--8--8--8--8--7-7-5-5-3-3-0-0-8--8--8--8--8--8-8--|
G|-7-7-5-5-3-3-0-0-8--8--8--8--8--8--7-7-5-5-3-3-0-0-8--8--8--8--8--8-8--|
C|-7-7-5-5-3-3-0-0-8--8--8--8--8--8--7-7-5-5-3-3-0-0-8--8--8--8--8--8-8--|
   pm- - - - - - - -  -  -  -  -  -  - - - - - - - - -  -
"...It took all these nights alone.     Alone we are (ALONE WE ARE!!!)"

-Chorus-
D|-------------------------------------------|
A|-------------------------------------------|
F|-------------------------------------------|
C|-2-2-2-2-2-2-2-2-3-3-3-3-3-3-3-3-3-3-3-3-3-|
G|-2-2-2-2-2-2-2-2-3-3-3-3-3-3-3-3-3-3-3-3-3-|
C|-2-2-2-2-2-2-2-2-3-3-3-3-3-3-3-3-3-3-3-3-3-|
"...Auroooooorrraaa       Don't leave meee yeett"
D|-------------------------------------------|
A|-------------------------------------------|
F|-------------------------------------------|
C|-5-5-5-5-5-5-5-5-7-7-7-7-7-7-7-7-7-7-7-7-7-|
G|-5-5-5-5-5-5-5-5-7-7-7-7-7-7-7-7-7-7-7-7-7-|
C|-5-5-5-5-5-5-5-5-7-7-7-7-7-7-7-7-7-7-7-7-7-|
"...Auroooooorrraaa       Don't leave meee yeett"

Gtr 1
D||---------------------------------------------------||
A||o-------------------------------------------------o||
F||---------------------------------------------------||
C||--0-0-0-0-0-0-8-8-8-8-8-8-7-7-7-7-7-7-5-5-5-5-5-5--||
G||o-0-0-0-0-0-0-8-8-8-8-8-8-7-7-7-7-7-7-5-5-5-5-5-5-o||
C||--0-0-0-0-0-0-8-8-8-8-8-8-7-7-7-7-7-7-5-5-5-5-5-5--||
Gtr 2
D||---------------------------------------------------||
A||o---6-----------6-----------6-----------6---------o||
F||-------9-----9-----9-----9-----9-----9-----9--7~~--||
C||--0-------7-----------8-----------7----------------||
G||o-------------------------------------------------o||
C||---------------------------------------------------||
"Yooour liipstiick stained life, is aariiiviiiiiiiiin"
                               (IT DOES! ARRIVE! FLYY!!!)

Gtr 1,2
D|----------------------------------------------------------|
A|-------------------6----------------------------6---------|
F|--------10-9\---/9---9-----9---------10-9\---/9---9-----9-|
C|--------x--x-----------7-8-----------x--x-----------7-8---|
G|-0-0-0--8--7\-----------------0-0-0--8--7\----------------|
C|-0-0-0------------------------0-0-0-----------------------|
   pm- -                        - - -
D|------------------------------------------------|
A|------------------------------------------------|
F|--------10-10--10-10-9-9-9--9--9-9-12-12-12--12-|
C|-0-0-0--8--8---8--8--7-7-7--7--7-7-10-10-10--10-|
G|-0-0-0--8--8---8--8--7-7-7--7--7-7-10-10-10--10-|
C|-0-0-0--8--8---8--8--7-7-7--7--7-7-10-10-10--10-|
   - - -         -  -  - - -     - - -  -  -


-Verse-
D||---------------------------------------------------||
A||o----10----10----10----10----10----10----10----10-o||
F||--------13----------13----------13----------13-----||
C||--12----------13----------12----------13-----------||
G||o-------------------------------------------------o||
C||---------------------------------------------------||
"...So at ease with the nights that we drove along.
....From the top of the hill where we don't go.
And the stop where we claim our life, our plaaaaace fooreever."

D|-------------------------------------------------|
A|----------------------------ph-------------------|
F|-----10----10----10\--9-9--10*~~----10----10-----|
C|-0-8-8--0--8--0--8\---7-7--------0--8--0--8--10\-|
G|-0-8-8--0--8--0--8\---7-7--------0--8--0--8--10\-|
C|-0-8-8--0--8--0--8\---7-7--------0--8--0--8--10\-|
   pm-    -     -       - -        -     -
"...And we dreamt it all along
....From the nights when the lights stayed alive we shared."

D|-----------------------------------------------------------------------|
A|-----------------------------------------------------------------------|
F|-9-9-7-7-5-5-2-2-10-10-10-10-10-10-9-9-7-7-5-5-2-2-10-10-10-10-10-9-10-|
C|-7-7-5-5-3-3-0-0-8--8--8--8--8--8--7-7-5-5-3-3-0-0-8--8--8--8--8--8-8--|
G|-7-7-5-5-3-3-0-0-8--8--8--8--8--8--7-7-5-5-3-3-0-0-8--8--8--8--8--8-8--|
C|-7-7-5-5-3-3-0-0-8--8--8--8--8--8--7-7-5-5-3-3-0-0-8--8--8--8--8--8-8--|
   pm- - - - - - - -  -  -  -  -  -  - - - - - - - - -  -
"...It took all these nights alone.     Alone we are (ALONE WE ARE!!!)"

-Chorus-
D|-------------------------------------------|
A|-------------------------------------------|
F|-------------------------------------------|
C|-2-2-2-2-2-2-2-2-3-3-3-3-3-3-3-3-3-3-3-3-3-|
G|-2-2-2-2-2-2-2-2-3-3-3-3-3-3-3-3-3-3-3-3-3-|
C|-2-2-2-2-2-2-2-2-3-3-3-3-3-3-3-3-3-3-3-3-3-|
"...Auroooooorrraaa       Don't leave meee yeett"
D|-------------------------------------------|
A|-------------------------------------------|
F|-------------------------------------------|
C|-5-5-5-5-5-5-5-5-7-7-7-7-7-7-7-7-7-7-7-7-7-|
G|-5-5-5-5-5-5-5-5-7-7-7-7-7-7-7-7-7-7-7-7-7-|
C|-5-5-5-5-5-5-5-5-7-7-7-7-7-7-7-7-7-7-7-7-7-|
"...Auroooooorrraaa       Don't leave meee yeett"

Gtr 1
D||---------------------------------------------------||----|
A||o-------------------------------------------------o||----|
F||---------------------------------------------------||----|
C||--0-0-0-0-0-0-8-8-8-8-8-8-7-7-7-7-7-7-5-5-5-5-5-5--||-0--|
G||o-0-0-0-0-0-0-8-8-8-8-8-8-7-7-7-7-7-7-5-5-5-5-5-5-o||-0--|
C||--0-0-0-0-0-0-8-8-8-8-8-8-7-7-7-7-7-7-5-5-5-5-5-5--||-0--|
Gtr 2
D||---------------------------------------------------||
A||o---6-----------6-----------6-----------6---------o||
F||-------9-----9-----9-----9-----9-----9-----9--7~~--||
C||--0-------7-----------8-----------7----------------||
G||o-------------------------------------------------o||
C||---------------------------------------------------||
"Yooour liipstiick stained life, is aariiiviiiiiiin"
                                  (IT DOES! ARRIVE! FLYY!!!)

Gtr 1
D|-----||---------------------------------------------------||
A|-----||o-------------------------------------------------o||
F|-----||---------------------------------------------------||
C|-0~~-||--0-0-0-0-0-0-8-8-8-8-8-8-7-7-7-7-7-7-5-5-5-5-5-5--||
G|-0~~-||o-0-0-0-0-0-0-8-8-8-8-8-8-7-7-7-7-7-7-5-5-5-5-5-5-o||
C|-0~~-||--0-0-0-0-0-0-8-8-8-8-8-8-7-7-7-7-7-7-5-5-5-5-5-5--||
Gtr 2
D|-----||---------------------------------------------------||
A|-----||o---6-----------6-----------6-----------6---------o||
F|-----||-------9-----9-----9-----9-----9-----9-----9--7~~--||
C|-----||--0-------7-----------8-----------7----------------||
G|-----||o-------------------------------------------------o||
C|-----||---------------------------------------------------||
"Yooour liipstiick stained life, is aariiiviiiiiiin"
                                  (IT DOES! ARRIVE! FLYY!!!)

-Breakdown-
Gtr 1
D|------------------------------------------------|
A|------------------------------------------------|
F|---14----12-------------------------------------|
C|---x-----x--------------------------------------|
G|-0-12--0-10--7h8p7---0-0-0--0-0-0--7h8p7-8h10p8-|
C|-0-----0-------------0-0-0--0-0-0---------------|
   pm    -             - - -  - - -
Gtr 2
D|------------------------------------------------|
A|------------------------------------------------|
F|------------------------------------------------|
C|---7----5---------------------------------------|
G|-0----0--------------0-0-0--0-0-0---------------|
C|-0----0--------------0-0-0--0-0-0---------------|
   -    -              - - -  - - -

Gtr 1
D|------------------------------------------------------|
A|------------------------------------------------------|
F|------------------------------------------------------|
C|------------------------------------------------------|
G|-0-0-0--0-0-0--7h8p7/10~~--0-0-0--0-0-0--7h8p7-8h10p8-|
C|-0-0-0--0-0-0--------------0-0-0--0-0-0---------------|
   - - -  - - -              - - -  - - -
Gtr 2
D|------------------------------------------------------|
A|------------------------------------------------------|
F|------------------------------------------------------|
C|------------------------------------------------------|
G|-0-0-0--0-0-0--------------0-0-0--0-0-0---------------|
C|-0-0-0--0-0-0--------------0-0-0--0-0-0---------------|
   - - -  - - -              - - -  - - -

Gtr 1
D|--------------------------------|
A|--------------------------------|
F|--------------------------------|
C|--------------------------------|
G|-0-0-0--0-0-0--7h8p7-8h10h12p10-|
C|-0-0-0--0-0-0-------------------|
   - - -  - - -
Gtr 2
D|--------------------------------|
A|--------------------------------|
F|--------------------------------|
C|--------------------------------|
G|-0-0-0--0-0-0-------------------|
C|-0-0-0--0-0-0-------------------|
   - - -  - - -

Gtr 1
D|------------------------------------------------------|
A|------------------------------------------------------|
F|------------------------------------------------------|
C|------------------------------------------------------|
G|-0-0-0--0-0-0--7h8p7-8h10p8--0-0-0--0-0-0--7h8p7/10~~-|
C|-0-0-0--0-0-0----------------0-0-0--0-0-0-------------|
   - - -  - - -                - - -  - - -
Gtr 2
D|------------------------------------------------------|
A|------------------------------------------------------|
F|------------------------------------------------------|
C|---------------5h7p5-7h8p7-----------------5h7p5/8~~~-|
G|-0-0-0--0-0-0----------------0-0-0--0-0-0-------------|
C|-0-0-0--0-0-0----------------0-0-0--0-0-0-------------|
   - - -  - - -                - - -  - - -

Gtr 1
D|----------------------------------------|
A|----------------------------------------|
F|-------------------------------14----12-|
C|-------------------------------x-----x--|
G|-0-0-0--0-0-0--7h8p7-8h10p8--0-12--0-10-|
C|-0-0-0--0-0-0----------------0-----0----|
   - - -  - - -                -     -
Gtr 2
D|----------------------------------------|
A|----------------------------------------|
F|----------------------------------------|
C|---------------5h7p5-7h8p7-----7-----5--|
G|-0-0-0--0-0-0----------------0-----0----|
C|-0-0-0--0-0-0----------------0-----0----|
   - - -  - - -                -     -


Gtr 1
D|-------------------------------------------------------------------------------|
A|-------------------------------------------------------------------------------|
F|-------------------------------------------------------------------------------|
C|-------------------------------------------------------------------------------|
G|-0-0-0--0-0-0-----------------7h8p7-8h10p8--0-0-0--0-0-0------------7h8p7/10~~-|
C|-0-0-0--0-0-0-------------------------------0-0-0--0-0-0-----------------------|
   - - -  - - -                               - - -  - - -
Gtr 2
D|-------------------------------------------------------------------------------|
A|-------------------------------------------------------------------------------|
F|-------------------------------------------------------------------------------|
C|------------------------------5h7p5-7h8p7---------------------------5h7p5/8~~~-|
G|-0-0-0--0-0-0-------------------------------0-0-0--0-0-0-----------------------|
C|-0-0-0--0-0-0-------------------------------0-0-0--0-0-0-----------------------|
   - - -  - - -                               - - -  - - -
               "...IN HOPES I SPEAK!!                  ..YOUR NAME FOR CLOSURE!!"

Gtr 1
D|---------------------------------------------------------------------|---------|
A|---------------------------------------------------------------------|---------|
F|------------------------------------------------------------14----12-|-10-9-10-|
C|------------------------------------------------------------x-----x--|-8--8-8--|
G|-0-0-0--0-0-0-----------------7h8p7-8h10p8--0-0-0--0-0-0--0-12--0-10-|-8--8-8--|
C|-0-0-0--0-0-0-------------------------------0-0-0--0-0-0--0-----0----|-8--8-8--|
   - - -  - - -                               - - -  - - -  -     -
Gtr 2
D|---------------------------------------------------------------------|---------|
A|---------------------------------------------------------------------|---------|
F|---------------------------------------------------------------------|-10-9-10-|
C|------------------------------5h7p5-7h8p7-------------------7-----5--|-8--8-8--|
G|-0-0-0--0-0-0-------------------------------0-0-0--0-0-0--0-----0----|-8--8-8--|
C|-0-0-0--0-0-0-------------------------------0-0-0--0-0-0--0-----0----|-8--8-8--|
   - - -  - - -                               - - -  - - -  -     -
               "...BY A THREAD WE'LL HANG!..    TO NEVER GIVE IN!!!"

-chorus-
D|-------------------------------------------|
A|-------------------------------------------|
F|-------------------------------------------|
C|-2-2-2-2-2-2-2-2-3-3-3-3-3-3-3-3-3-3-3-3-3-|
G|-2-2-2-2-2-2-2-2-3-3-3-3-3-3-3-3-3-3-3-3-3-|
C|-2-2-2-2-2-2-2-2-3-3-3-3-3-3-3-3-3-3-3-3-3-|
"...Auroooooorrraaa       Don't leave meee yeett"
D|-------------------------------------------|
A|-------------------------------------------|
F|-------------------------------------------|
C|-5-5-5-5-5-5-5-5-7-7-7-7-7-7-7-7-7-7-7-7-7-|
G|-5-5-5-5-5-5-5-5-7-7-7-7-7-7-7-7-7-7-7-7-7-|
C|-5-5-5-5-5-5-5-5-7-7-7-7-7-7-7-7-7-7-7-7-7-|
"...Auroooooorrraaa       Don't leave meee yeett"

Gtr 1
D||---------------------------------------------------||
A||o-------------------------------------------------o||
F||---------------------------------------------------||
C||--0-0-0-0-0-0-8-8-8-8-8-8-7-7-7-7-7-7-5-5-5-5-5-5--||
G||o-0-0-0-0-0-0-8-8-8-8-8-8-7-7-7-7-7-7-5-5-5-5-5-5-o||
C||--0-0-0-0-0-0-8-8-8-8-8-8-7-7-7-7-7-7-5-5-5-5-5-5--||
Gtr 2
D||---------------------------------------------------||--0~~~~~~~~~~-|
A||o---6-----------6-----------6-----------6---------o||--5b6~~~~r5~~-|
F||-------9-----9-----9-----9-----9-----9-----9--7~~--||--------------|
C||--0-------7-----------8-----------7----------------||--------------|
G||o-------------------------------------------------o||--------------|
C||---------------------------------------------------||--------------|
"Yooour liipstiick stained life, is aariiiviiiiiiiiin"

Gtr 1
D||---------------------------------------------------||--------------|
A||o-------------------------------------------------o||--------------|
F||---------------------------------------------------||-10-9---------|
C||--0-0-0-0-0-0-8-8-8-8-8-8-7-7-7-7-7-7-5-5-5-5-5-5--||-8--8-0~~~~~~-|
G||o-0-0-0-0-0-0-8-8-8-8-8-8-7-7-7-7-7-7-5-5-5-5-5-5-o||-8--8-0~~~~~~-|
C||--0-0-0-0-0-0-8-8-8-8-8-8-7-7-7-7-7-7-5-5-5-5-5-5--||-8--8-0~~~~~~-|
Gtr 2
D||---------------------------------------------------||--0~~~~~~~~~~-|
A||o---6-----------6-----------6-----------6---------o||--5b6~~~~r5~~-|
F||-------9-----9-----9-----9-----9-----9-----9--7~~--||--------------|
C||--0-------7-----------8-----------7----------------||--------------|
G||o-------------------------------------------------o||--------------|
C||---------------------------------------------------||--------------|
"Yooour liipstiick stained life, is aariiiviiiiiiiiin"
(Tonight may be the last night.. iiinn theeese shooees)
Suggest correction
What's this?
You can suggest a correction to this tab. Community and Mods will review your correction and vote to approve or reject it.
comments
We did not receive enough feedback on this tab! Please rate:
print report bad tab
1 2 3 4 5
1 comment total.
-1 reply
zttun 10 wrote on August 8 2008, 06:25 pm

i havent tried out the entire tab but the intro is an arpeggio and should be played like this

e-0-------
b--6----5-
g---5--5--
d----0----
a--------
e-------
--------

im working on a gp of this currently

guest
You may want to rate the tab now too:
select rating
Please do not post tabs as comments. Select "correction" instead!