Oops, an error
Loading. Please wait.

Bury Me Where I Fall bass

version 2
version 2

Whole song

Interactive

127 views 1 this week
no commentswrite comment
1 2 3 4 5
3 more votes to show rating
add to favorites
×
Save as Personal and add changes to this tab that will be seen only by you. Learn more ›
×
You can save this tab as Personal to edit and correct it or add notes. All changes will be seen only by you. Learn more »
launch autoscroll
font size
0
reset
guitar tuner
edit
Autoscroll
slow
fast
+/-
esc
set tempo
stop
Ok, this is my first time tabbing.
Rock on Alaskan Forestcore!


(INTRO) (0:02)
G--------------------|
D--------------------|
A--------------------|
E---0100--0010--00-0-|


(INTERLUDE) (0:05)
G-------------------------------|
D-------------------------------|
A-------------------------------|
E-0100--0010~--0100--0010--1----|    (x4)


(VERSE) (0:23)
G----------------------------|
D----------------------------|
A----------------------------|
E---3-1----3-1----3-1----3-1-|

(0:32)
G---------------------------|
D---------------------------|
A-----------3555-5666-------|
E---3-1-03-0----------------|

G---------------------------|
D---------------------------|
A-----------5666-6555-------|
E---3-1-03-0----------------|  (Repeat three times from 0:32)


(CHORUS) (0:51)
G---------------------------6~-|
D----8~----6~-----8~---8~------|
A-------------8~---------------|
E------------------------------|

G---------------------------8~-|
D----8~----6~-9~---8~----------|
A------------------------------|
E------------------------------| (Repeat from 0:51)

INTERLUDE x1

VERSE x1

CHORUS x1

(BREAKDOWN) (2:04)
G-------------------------|
D-------------------------|
A-------------------------|
E----1---0---1---0--0--1--|  (x3)

G-----------------------|
D-----------------------|
A-----------------------|
E----1---0---1---0--0.--|

(2:14)
G-------------------------|
D-------------------------|
A-------------------------|
E----1---0---1---0--0--1--|  (x3)


G-------------------------|
D-------------------------|
A-------------------------|
E----1---0---1---0---3-1--|  (Repeat from 2:14)


CHORUS x1

(FINAL BREAKDOWN)
(2:53)
G-----------|
D-----------|
A-----------|
E---0~------|

(2:56)
G-----------|
D-----------|
A-----------|
E-----0-0---|

(2:57)
G------------------------|
D------------------------|
A------------------------|
E--1000--00100--00~------|  (x3)


G------------------------|
D------------------------|
A------------------------|
E--1000--00100--0-31-----|  (Repeat from 2:57)


(3:14)
G------------------|
D------------------|
A------------------|
E--1000--00100-----|  (x4)



I am aware that the chorus is not entirely correct for bass, if anyone has any 
suggestions feel free to e-mail me at
sambozo@hotmail.co.uk

Thank you for using this tab and I hope you enjoy it

            
            
Suggest correction
Creating personal tab
Creating personal tab
You can edit any tab online and save it as your Personal.

You can edit, replace or remove any tab part or add personal notes – all changes will be seen only by you.

Personal tabs can be accessed anytime from any device, even offline.
Learn more »
Give kudos to tab author, rate the tab!
1 2 3 4 5
comments
print report bad tab
guest
Wanna post a correction for this tab? Suggest correction