Oops, an error
Loading. Please wait.

Slit Wrist Theory tab

version 4
version 4

Whole song

Interactive

4,651 views 9 this week
3 commentsread comments
1 2 3 4 5
1 last vote to show rating
add to favorites
×
Save as Personal and add changes to this tab that will be seen only by you. Learn more ›
×
You can save this tab as Personal to edit and correct it or add notes. All changes will be seen only by you. Learn more »
launch autoscroll
font size
0
reset
how to read this tab
guitar tuner
backing track
0:00
0:00
edit
Autoscroll
slow
fast
+/-
esc
set tempo
stop
Author
Difficulty
----------------------------------------------------------------------------
                             Slit Wrist Theory - 36 Crazy Fists
----------------------------------------------------------------------------
Tabbed by: Laslow (Jon Taylor)
Email:  ahhmyhandsonfire@hotmail.com

This is quite an easy song to play but will only sound right if you have a delay effect
a little distortion. I Play the whole song with the whole song with a distorted delay
and it sounds right to me but you may want to just have distortion on for the bridge, 
and interlude. Enjoy :)

Tuning: CGCFAD

| /  slide up
| \  slide down
| h  hammer-on
| p  pull-off
| ~  let ring
| +  harmonic
| x  Mute note

Intro + Verse (played with a delay effect) x5

D|-------------------------------------------------------------------------|
A|-------------------------------------------------------------------------|
F|-------------------------------------------------------------------------|
C|-----8-----7-----------8-----7--10--10-----------------------------------|
G|--------6--------8--------6----------8-----------------------------------|
C|--5-----------8-----5----------------------------------------------------|

6th time do this

D|-------------------------------------------------------------------------|
A|-------------------------------------------------------------------------|
F|-------------------------------------------------------------------------|
C|-----8-----7-----------8-----7--10\\\\-----------------------------------|
G|--------6--------8--------6----------------------------------------------|
C|--5-----------8-----5----------------------------------------------------|

then verse x2

D|-------------------------------------------------------------------------|
A|-------------------------------------------------------------------------|
F|-------------------------------------------------------------------------|
C|-----8-----7-----------8-----7--10--10-----------------------------------|
G|--------6--------8--------6----------8-----------------------------------|
C|--5-----------8-----5----------------------------------------------------|

and end on this

D|-------------------------------------------------------------------------|
A|-------------------------------------------------------------------------|
F|-------------------------------------------------------------------------|
C|-------------------------------------------------------------------------|
G|-------------------------------------------------------------------------|
C|--5~~~~------------------------------------------------------------------|

Bridge x2

D|-------------------------------------------------------------------------|
A|-------------------------------------------------------------------------|
F|-------------------------------------------------------------------------|
C|---35535535-35535535-35535535--0-1-3-4x34--------------------------------|
G|---35535535-35535535-35535535--0-1-3-4x34--------------------------------|
C|---35535535-35535535-35535535--0-1-3-4x34--------------------------------|

End on this

D|-------------------------------------------------------------------------|
A|-------------------------------------------------------------------------|
F|-------------------------------------------------------------------------|
C|---0-1-3-4x3-------------------------------------------------------------|
G|---0-1-3-4x3-------------------------------------------------------------|
C|---0-1-3-4x3-------------------------------------------------------------|

Chorus x2

D|---------------------------------------------------------------------|
A|---------------------------------------------------------------------|
F|---------------------------------------------------------------------|
C|---5555555555555555-8888888888888888--131313131313--1010101010101010-|
G|---5555555555555555-8888888888888888--131313131313--1010101010101010-|
C|---5555555555555555-8888888888888888--131313131313--1010101010101010-|

 ------------------------------------------------------------------------|
 ------------------------------------------------------------------------|
 ------------------------------------------------------------------------|
 -131313131313--888888-6~------------------------------------------------|
 -131313131313--888888-6~------------------------------------------------|
 -131313131313--888888-6~------------------------------------------------|

Intro + Verse (played with a delay effect) x2

D|-------------------------------------------------------------------------|
A|-------------------------------------------------------------------------|
F|-------------------------------------------------------------------------|
C|-----8-----7-----------8-----7--10--10-----------------------------------|
G|--------6--------8--------6----------8-----------------------------------|
C|--5-----------8-----5----------------------------------------------------|

3rd time do this

D|-------------------------------------------------------------------------|
A|-------------------------------------------------------------------------|
F|-------------------------------------------------------------------------|
C|-----8-----7-----------8-----7--10\\\\-----------------------------------|
G|--------6--------8--------6----------------------------------------------|
C|--5-----------8-----5----------------------------------------------------|

then verse x2

D|-------------------------------------------------------------------------|
A|-------------------------------------------------------------------------|
F|-------------------------------------------------------------------------|
C|-----8-----7-----------8-----7--10--10-----------------------------------|
G|--------6--------8--------6----------8-----------------------------------|
C|--5-----------8-----5----------------------------------------------------|

and end on this

D|-------------------------------------------------------------------------|
A|-------------------------------------------------------------------------|
F|-------------------------------------------------------------------------|
C|-------------------------------------------------------------------------|
G|-------------------------------------------------------------------------|
C|--5~~~~------------------------------------------------------------------|

Bridge x2

D|-------------------------------------------------------------------------|
A|-------------------------------------------------------------------------|
F|-------------------------------------------------------------------------|
C|---35535535-35535535-35535535--0-1-3-4x34--------------------------------|
G|---35535535-35535535-35535535--0-1-3-4x34--------------------------------|
C|---35535535-35535535-35535535--0-1-3-4x34--------------------------------|

End on this

D|-------------------------------------------------------------------------|
A|-------------------------------------------------------------------------|
F|-------------------------------------------------------------------------|
C|---0-1-3-4x3-------------------------------------------------------------|
G|---0-1-3-4x3-------------------------------------------------------------|
C|---0-1-3-4x3-------------------------------------------------------------|

Chorus x2

D|---------------------------------------------------------------------|
A|---------------------------------------------------------------------|
F|---------------------------------------------------------------------|
C|---5555555555555555-8888888888888888--131313131313--1010101010101010-|
G|---5555555555555555-8888888888888888--131313131313--1010101010101010-|
C|---5555555555555555-8888888888888888--131313131313--1010101010101010-|

 ------------------------------------------------------------------------|
 ------------------------------------------------------------------------|
 ------------------------------------------------------------------------|
 -131313131313--888888-6~------------------------------------------------|
 -131313131313--888888-6~------------------------------------------------|
 -131313131313--888888-6~------------------------------------------------|

Then

D|-------------------------------------------------------------------------|
A|-------------------------------------------------------------------------|
F|-------------------------------------------------------------------------|
C|---555366635553666355536663555551~-5553666355536663555366635555xxxx------|
G|---555366635553666355536663555551~-5553666355536663555366635555xxxx------|
C|---555366635553666355536663555551~-5553666355536663555366635555xxxx------|

Bridge x4

D|-------------------------------------------------------------------------|
A|-------------------------------------------------------------------------|
F|-------------------------------------------------------------------------|
C|---35535535-35535535-35535535--0-1-3-4x34--------------------------------|
G|---35535535-35535535-35535535--0-1-3-4x34--------------------------------|
C|---35535535-35535535-35535535--0-1-3-4x34--------------------------------|

Then this

D|-------------------------------------------------------------------------|
A|-------------------------------------------------------------------------|
F|-------------------------------------------------------------------------|
C|---0-1-3-4x3--------------------333333-----------------------------------|
G|---0-1-3-4x3--------------------333333-----------------------------------|
C|---0-1-3-4x3---0-1-3-4034--0-1-3333333-----------------------------------|

Chorus x2

D|---------------------------------------------------------------------|
A|---------------------------------------------------------------------|
F|---------------------------------------------------------------------|
C|---5555555555555555-8888888888888888--131313131313--1010101010101010-|
G|---5555555555555555-8888888888888888--131313131313--1010101010101010-|
C|---5555555555555555-8888888888888888--131313131313--1010101010101010-|

 ------------------------------------------------------------------------|
 ------------------------------------------------------------------------|
 ------------------------------------------------------------------------|
 -131313131313--888888-6~------------------------------------------------|
 -131313131313--888888-6~------------------------------------------------|
 -131313131313--888888-6~------------------------------------------------|

verse x5

D|-------------------------------------------------------------------------|
A|-------------------------------------------------------------------------|
F|-------------------------------------------------------------------------|
C|-----8-----7-----------8-----7--10--10-----------------------------------|
G|--------6--------8--------6----------8-----------------------------------|
C|--5-----------8-----5----------------------------------------------------|

and end on this

D|-------------------------------------------------------------------------|
A|-------------------------------------------------------------------------|
F|-------------------------------------------------------------------------|
C|-------------------------------------------------------------------------|
G|-------------------------------------------------------------------------|
C|--5~~~~------------------------------------------------------------------|


and thats it!!

            
            
Suggest correction
Creating personal tab
Creating personal tab
You can edit any tab online and save it as your Personal.

You can edit, replace or remove any tab part or add personal notes – all changes will be seen only by you.

Personal tabs can be accessed anytime from any device, even offline.
Learn more »
Give kudos to tab author, rate the tab!
1 2 3 4 5
comments
print report bad tab
3 comments total.
+1 reply
Lord Killswitch 30 Jul 11, 2008 05:32 AM

very good tab, all correct cept for a minor detail on the intro / verse

I do believe its:

D|-------------------------------------------------------------------
A|-------------------------------------------------------------------
F|-------------------------------------------------------------------
C|-----8-----7-----5-----8-----7--10---------------------------------
G|--------6-----3-----------6----------8-----------------------------
C|--5-----------------5----------------------------------------------

hope that shows up... if not ill try again. allthough, very good tab otherwise :D

0 reply
j.r.d. 10 Aug 16, 2008 10:26 AM

yeah lord killswitch is right
and another point
if you dont have high gauge strings the chorus sounds sloppy in the
--- ----
--- ----
--- 8---
13- 8---
13- part, so play it 6---
13- ----

otherwise geat tab

0 reply
Laslow 101 Sep 22, 2009 05:06 PM

yeah you're right i didn't hear it properly the first couple times it seems :)

guest
You may want to rate the tab now too:
select rating
Wanna post a correction for this tab? Suggest correction