Oops, an error
Loading. Please wait.

The Heart And The Shape tab

version 3
version 3

Whole song

Interactive

5,322 views 3 this week
1 commentread comment
1 2 3 4 5
x 5
add to favorites
×
Save as Personal and add changes to this tab that will be seen only by you. Learn more ›
×
You can save this tab as Personal to edit and correct it or add notes. All changes will be seen only by you. Learn more »
launch autoscroll
font size
0
reset
how to read this tab
guitar tuner
edit
Autoscroll
slow
fast
+/-
esc
set tempo
stop
The Heart & The Shape
36 Crazyfists
A Snow Capped Romance
Drop C- CGCFAD

-Intro-
Gtr 1- Distortion
D||------------------------------------------||
A||o----------------------------------------o||
F||----10p9-9-10p9-9---9---10p9-9-----10p9-9-||
C||--0~--------------0---8~---------7~-------||
G||o----------------------------------------o||
C||------------------------------------------||
(second time Gtr 2 comes in)

Gtr 1,2
D||------------------------------------------------------------------||
A||o----------------------------------------------------------------o||
F||--------------------------------10--10-10-10-10-10--9--9-9-9-9-9--||
C||--0--3-2-0-2--0-3-2-0-2--0------8---8--8--8--7--7---7--7-7-7-7-7--||
G||o-0--3-2-0-2--0-3-2-0-2--0--ph--8---8--8--8--7--7---7--7-7-7-7-7-o||
C||--0--3-2-0-2--0-3-2-0-2--0-3*b--8---8--8--8--7--7---7--7-7-7-7-7--||

-Verse-
D||--------------------------------------------------------------||
A||o---------------------------------------------------------ph-o||
F||--------------------------------------------------10---10-9*~-||
C||--8\--0-0-000-0--8\--0-0-0-000--8\--0-0-000-0---8----7--------||
G||o-8\--0-0-000-0--8\--0-0-0-000--8\--0-0-000-0---8----7-------o||
C||--8\--0-0-000-0--8\--0-0-0-000--8\--0-0-000-0---8----7--------||
         pm- --- -      - - - ---      - - --- -
“Just went through your eyes and the battle was fine.
Couldn’t stand your screaming..
Now I realize that I might have been.. 
Part of the reason for you frowning..”

-Pre Chorus-
D||------------------------------------------||
A||o----------------------------------------o||
F||----10p9-9-10p9-9---9---10p9-9-----10p9-9-||
C||--0~--------------0---8~---------7~-------||
G||o----------------------------------------o||
C||------------------------------------------||
“And so I grey the heart and the shape..”
That look that you gave staring!”

-Chorus-
D||------------------------------------------------------------------||
A||o----------------------------------------------------------------o||
F||--------------------------------10--10-10-10-10-10--9--9-9-9-9-9--||
C||--0--3-2-0-2--0-3-2-0-2--0------8---8--8--8--7--7---7--7-7-7-7-7--||
G||o-0--3-2-0-2--0-3-2-0-2--0--ph--8---8--8--8--7--7---7--7-7-7-7-7-o||
C||--0--3-2-0-2--0-3-2-0-2--0-3*b--8---8--8--8--7--7---7--7-7-7-7-7--||
                                “At empty, help me back to awake..
                                 And so I grey the heart and the shape..”
-Interlude-
D|------------------------------------------|
A|------------------------------------------|
F|------------------------------------------|
C|-8p0--0--8p0--0--7-8--8p0--0--8p0--0--5-7-|
G|-8p0--0--8p0--0--7-8--8p0--0--8p0--0--5-7-|
C|-8p0--0--8p0--0--7-8--8p0--0--8p0--0--5-7-|

D|------------------------------------------|
A|------------------------------------------|
F|------------------------------------------|
C|----------------------8p0--0--8p0--0--5-7-|
G|----------------------8p0--0--8p0--0--5-7-|
C|-8p0--0--8p0--0--7-8--8p0--0--8p0--0--5-7-|

-Verse-
D||--------------------------------------------------------------||
A||o---------------------------------------------------------ph-o||
F||--------------------------------------------------10---10-9*~-||
C||--8\--0-0-000-0--8\--0-0-0-000--8\--0-0-000-0---8----7--------||
G||o-8\--0-0-000-0--8\--0-0-0-000--8\--0-0-000-0---8----7-------o||
C||--8\--0-0-000-0--8\--0-0-0-000--8\--0-0-000-0---8----7--------||
         pm- --- -      - - - ---      - - --- -
“Now the bottle plays.. a little factor”
Not the way I used to be, thankfully..
I was discussing a different matter,
NOW I ENGAGE IN EVERYTHING! infinity..”

-Pre Chorus-
D||------------------------------------------||
A||o----------------------------------------o||
F||----10p9-9-10p9-9---9---10p9-9-----10p9-9-||
C||--0~--------------0---8~---------7~-------||
G||o----------------------------------------o||
C||------------------------------------------||
“And so I grey the heart and the shape..
That look that you gave staring!”

-Chorus-
D||------------------------------------------------------------------||
A||o----------------------------------------------------------------o||
F||--------------------------------10--10-10-10-10-10--9--9-9-9-9-9--||
C||--0--3-2-0-2--0-3-2-0-2--0------8---8--8--8--7--7---7--7-7-7-7-7--||
G||o-0--3-2-0-2--0-3-2-0-2--0--ph--8---8--8--8--7--7---7--7-7-7-7-7-o||
C||--0--3-2-0-2--0-3-2-0-2--0-3*b--8---8--8--8--7--7---7--7-7-7-7-7--||
                                “At empty help me back to awake”
                                 AND SO I GREY THE HEART AND THE SHAPE!”
-Interlude-
D|------------------------------------------|
A|------------------------------------------|
F|------------------------------------------|
C|-8p0--0--8p0--0--7-8--8p0--0--8p0--0--5-7-|
G|-8p0--0--8p0--0--7-8--8p0--0--8p0--0--5-7-|
C|-8p0--0--8p0--0--7-8--8p0--0--8p0--0--5-7-|
“HELP ME BACK TO AWAKE!!!”


D|------------------------------------------|
A|------------------------------------------|
F|------------------------------------------|
C|----------------------8p0--0--8p0--0--5-7-|
G|----------------------8p0--0--8p0--0--5-7-|
C|-8p0--0--8p0--0--7-8--8p0--0--8p0--0--5-7-|
“HELP ME BACK TO AWAKE!!!”

-Breakdown-
D||--------------------------------------||
A||o------------------------------------o||
F||--------------------------------------||
C||--8\--0--8\--0-2-3--8\--0--8\--0-3-5--||
G||o-8\--0--8\--0-2-3--8\--0--8\--0-3-5-o||
C||--8\--0--8\--0-2-3--8\--0--8\--0-3-5--||
“THERE WERE SENTENCES WITH NO DIRECTION!!!
THOSE ARE PIECES THAT I PUT AWAY!!!”

Gtr 1
D|------------------------------------------------------------------|
A|------------------------------------------------------------------|
F|------------------------------------------------------------------|
C|--3*---3*-------3*-------------------------------------3*---------|
G|-----0----0-3-5----0--3*--0-2-3------0--3*-0-2-3-----0-----0-3-5--|
C|-----0----0-3-5----0------0-2-3--3*--0-----0-2-3--3*-0-----0-3-5--|
Gtr 2
D|------------------------------------------------------------------|
A|------------------------------------------------------------------|
F|------------------------------------------------------------------|
C|--3*--3*--------3*-------------------------------------3*---------|
G|----------------------3*---------------3*-------------------------|
C|---------------------------------3*--------------3*---------------|
“THERE WAS SADNESS IN THE REFLECTION!! ONE LONG LOOK, THAT’S ALL IT...

Gtr 1
D|-----------------------------------------|
A|-----------------------------------------|
F|---10p9-9-10p9-9---9---10p9-9-----10p9-9-|
C|-0~--------------0---8~---------7--------|
G|-----------------------------------------|
C|-----------------------------------------|
Gtr 2
D|-----------------------------------------|
A|-----------------------------------------|
F|-----------------------------------------|
C|-0~~~~-----------------------------------|
G|-0~~~~-----------------------------------|
C|-0~~~~-----------------------------------|
“TAKES!!!..”

-Pre Chorus-
Gtr 1
D|----------------------------------|
A|----------------------------------|
F|---10p9-9-10p9-9---9---10p9-9-----|
C|-0~--------------0---8~---------7-|
G|----------------------------------|
C|----------------------------------|
Gtr 2
D|----------------------------------|
A|----------------------------------|
F|----------------------------------|
C|-0~~~~---------------8~~~~------7-|
G|-0~~~~---------------8~~~~------7-|
C|-0~~~~---------------8~~~~------7-|
“And so I grey the heart and the shape..”


“That look that you gave staring!!!”

-Chorus-
D||------------------------------------------------------------------||
A||o----------------------------------------------------------------o||
F||--------------------------------10--10-10-10-10-10--9--9-9-9-9-9--||
C||--0--3-2-0-2--0-3-2-0-2--0------8---8--8--8--7--7---7--7-7-7-7-7--||
G||o-0--3-2-0-2--0-3-2-0-2--0--ph--8---8--8--8--7--7---7--7-7-7-7-7-o||
C||--0--3-2-0-2--0-3-2-0-2--0-3*b--8---8--8--8--7--7---7--7-7-7-7-7--||
                                “At empty help me back to awake
                                 And so I grey the heart and the shape”
-Interlude-
D|------------------------------------------|
A|------------------------------------------|
F|------------------------------------------|
C|-8p0--0--8p0--0--7-8--8p0--0--8p0--0--5-7-|
G|-8p0--0--8p0--0--7-8--8p0--0--8p0--0--5-7-|
C|-8p0--0--8p0--0--7-8--8p0--0--8p0--0--5-7-|
“HELP ME BACK TO AWAKE!!!”

D|------------------------------------------|
A|------------------------------------------|
F|------------------------------------------|
C|----------------------8p0--0--8p0--0--5-7-|
G|----------------------8p0--0--8p0--0--5-7-|
C|-8p0--0--8p0--0--7-8--8p0--0--8p0--0--5-7-|
“HELP ME BACK TO AWAKE!!!”

-Breakdown-
D||--------------------------------------||
A||o------------------------------------o||
F||--------------------------------------||
C||--8\--0--8\--0-2-3--8\--0--8\--0-3-5--||
G||o-8\--0--8\--0-2-3--8\--0--8\--0-3-5-o||
C||--8\--0--8\--0-2-3--8\--0--8\--0-3-5--||
“THERE WERE SENTENCES WITH NO DIRECTION!!!
THOSE ARE PIECES THAT I PUT AWAY!!!”

Gtr 1
D|------------------------------------------------------------------|
A|------------------------------------------------------------------|
F|------------------------------------------------------------------|
C|--3*---3*-------3*-------------------------------------3*---------|
G|-----0----0-3-5----0--3*--0-2-3------0--3*-0-2-3-----0-----0-3-5--|
C|-----0----0-3-5----0------0-2-3--3*--0-----0-2-3--3*-0-----0-3-5--|
Gtr 2
D|------------------------------------------------------------------|
A|------------------------------------------------------------------|
F|------------------------------------------------------------------|
C|--3*--3*--------3*-------------------------------------3*---------|
G|----------------------3*---------------3*-------------------------|
C|---------------------------------3*--------------3*---------------|
“THERE WAS SADNESS IN THE REFLECTION!! ONE LONG LOOK, THAT’S ALL THAT IT..

Gtr 1,2
D|-------|
A|-------|
F|-------|
C|-0~~~~-|
G|-0~~~~-|
C|-0~~~~-|
“TAKES!!!”

            
            
Suggest correction
Creating personal tab
Creating personal tab
You can edit any tab online and save it as your Personal.

You can edit, replace or remove any tab part or add personal notes – all changes will be seen only by you.

Personal tabs can be accessed anytime from any device, even offline.
Learn more »
comments
print report bad tab
1 comment total.
+1 reply
Tias 181 Dec 29, 2008 05:29 AM

-Interlude-
D|------------------------------------------|
A|------------------------------------------|
F|------------------------------------------|
C|-8p0--0--8p0--0--7-8--8p0--0--8p0--0--3-5-|
G|-8p0--0--8p0--0--7-8--8p0--0--8p0--0--3-5-|
C|-8p0--0--8p0--0--7-8--8p0--0--8p0--0--3-5-|
“HELP ME BACK TO AWAKE!!!”

D|------------------------------------------|
A|------------------------------------------|
F|------------------------------------------|
C|----------------------8p0--0--8p0--0--3-5-|
G|----------------------8p0--0--8p0--0--3-5-|
C|-8p0--0--8p0--0--7-8--8p0--0--8p0--0--3-5-|
“HELP ME BACK TO AWAKE!!!”

-Breakdown-
D||--------------------------------------||
A||o------------------------------------o||
F||--------------------------------------||
C||--8\--0--8\--0-9-10-8\--0--8\--0-3-5--||
G||o-8\--0--8\--0-7-8--8\--0--8\--0-3-5-o||
C||--8\--0--8\--0-7-8--8\--0--8\--0-3-5--||
“THERE WERE SENTENCES WITH NO DIRECTION!!!
THOSE ARE PIECES THAT I PUT AWAY!!!”

Gtr 1
D|------------------------------------------------------------------|
A|-------------------------------------------------------------------|
F|-------------------------------------------------------------------|
C|--3*---3*---9-10-3*-------------------------------------3*---------|
G|-----0----0-7-8-----0--3*--0-3-5------0--3*-0-2-3-----0-----0-3-5--|
C|-----0----0-7-8-----0------0-3-5--3*--0-----0-2-3--3*-0-----0-3-5--|

I think its this

guest
You may want to rate the tab now too:
select rating
Wanna post a correction for this tab? Suggest correction