Oops, an error
Loading. Please wait.

Two Months From A Year tab

version 2
version 2

Whole song

Interactive

935 views 1 this week
1 commentread comment
1 2 3 4 5
1 last vote to show rating
add to favorites
×
Save as Personal and add changes to this tab that will be seen only by you. Learn more ›
×
You can save this tab as Personal to edit and correct it or add notes. All changes will be seen only by you. Learn more »
launch autoscroll
font size
0
reset
how to read this tab
guitar tuner
edit
Autoscroll
slow
fast
+/-
esc
set tempo
stop
Two Months From A Year
36 Crazyfists
Bitterness The Star
Drop C- CGCFAD

-Intro- 
Gtr 1- Clean w/Delay
D|--------------------------------------------------------------------|
A|--------------------------------------------------------------------|
F|--------------------------------------------------------------------|
C|-----9--(9)------------5--(5)----------9--(9)------------5h7--(5h7)-|
G|---7-----7---7p5-----3-----3---3-----7-----7---7p5-----3------------|
C|-7---------7-------3---------3-----7---------7-------3--------------|

Gtr 1- Clean w/Delay
D|-----------------------------------|
A|-----------------------------------|
F|-----------------------------------|
C|-----9--(9)-------------5--(5)-----|
G|---7-----7----7p5-----3-----3----3-|
C|-7----------7-------3----------3---|
Gtr 2- Clean
D|-----------------------------------|
A|-----------------------------------|
F|----5r4~~~~------------------------|
C|-----------------------------------|
G|-----------------------------------|
C|-----------------------------------|
“Am I allowed to breathe? Am I allowed to counter?”

Gtr 1
D|-----------------------------------|
A|-----------------------------------|
F|-----------------------------------|
C|-----9--(9)-------------5---5-7----|
G|---7-----7----7p5-----3---3--------|
C|-7----------7-------3------------3-|
Gtr 2
D|-----------------------------------|
A|-----------------------------------|
F|----5r4~~~~------------------------|
C|-------------5h7p5~~~--------------|
G|-----------------------------------|
C|-----------------------------------|
“Words that don’t believe, words that don’t matter”

Gtr 1
D|------------------------------------|
A|------------------------------------|
F|------------------------------------|
C|-----9/10\9---------------5---5-7---|
G|---7--------7---7p5-----3---3-------|
C|-7------------7-------3-----------3-|
Gtr 2
D|--------------------------------------|
A|--------------------------------------|
F|----5r4~~~~---------------------------|
C|--------------------------------------|
G|--------------------------------------|
C|--------------------------------------|
“And soon I’ll say forget them all”

Gtr 1
D|-------------------------------|
A|-------------------------------|
F|-------------------------------|
C|-----9/10\9---------------5~~~-|
G|---7--------7---7p5-----3~~~~~-|
C|-7------------7-------3~~~~~~~-|
Gtr 2
D|-------------------------------|
A|-------------------------------|
F|----5r4~~~~--------------------|
C|-------------5h7p5~~~~~~~~~~~~-|
G|-------------------------------|
C|-------------------------------|
“Only sometimes am I allowed”


“Breathe...”


-Verse- x6 
Gtr 1,2- Disotortion
D||----------------------------------------------------||
A||o--------------------------------------------------o||
F||----------------------------------------------------||
C||--7-7-7-7-9-9--7-7-7-7-9--7-7-7-7-9-9--7-7-7/9-2-4--||
G||o-7-7-7-7-7-7--7-7-7-7-7--7-7-7-7-7-7--7-7-7/9-2-4-o||
C||--7-7-7-7-7-7--7-7-7-7-7--7-7-7-7-7-7--7-7-7/9-2-4--||
“And someone should have told me, that you would be here
...But you weren’t you anymore, you weren’t you"

-Pre-Chorus-
D||-----------------------------------------------------------||
A||o---------------------------------------------------------o||
F||--------10~~-----10/12--9---------10~~-----10/12-12/14-14--||
C||-----------------------------------------------------------||
G||o--------8~~------8/10--7----------8~~------8/10-10/12-12-o||
C||--0--0-0------0-0-----------0--0-0------0-0----------------||
“But you will...you will.. you will.. YOU!!!”

-Chorus-
D|------------------------------------------------|
A|------------------------------------------------|
F|-7--5~~~----7--5--3~~~----7--5~~~----7--5--3~~~-|
C|-5--3~~~----5--3--1~~~----5--3~~~----5--3--1~~~-|
G|-5--3~~~----5--3--1~~~----5--3~~~----5--3--1~~~-|
C|-5--3~~~----5--3--1~~~----5--3~~~----5--3--1~~~-|
“Soon I       will fall    like the     wall..”

-Verse- x6
D||----------------------------------------------------||
A||o--------------------------------------------------o||
F||----------------------------------------------------||
C||--7-7-7-7-9-9--7-7-7-7-9--7-7-7-7-9-9--7-7-7/9-2-4--||
G||o-7-7-7-7-7-7--7-7-7-7-7--7-7-7-7-7-7--7-7-7/9-2-4-o||
C||--7-7-7-7-7-7--7-7-7-7-7--7-7-7-7-7-7--7-7-7/9-2-4--||
(Breathe)
(Breathe)
“And how it feels will be horror, do you hate it?
...’Cause you weren’t you anymore, you weren’t you”

-Pre-Chorus-
D||-----------------------------------------------------------||
A||o---------------------------------------------------------o||
F||--------10~~-----10/12--9---------10~~-----10/12-12/14-14--||
C||-----------------------------------------------------------||
G||o--------8~~------8/10--7----------8~~------8/10-10/12-12-o||
C||--0--0-0------0-0-----------0--0-0------0-0----------------||
“But you will...you will.. you will.. YOU!!!”

-Chorus-
D|------------------------------------------------|
A|------------------------------------------------|
F|-7--5~~~----7--5--3~~~----7--5~~~----7--5--3~~~-|
C|-5--3~~~----5--3--1~~~----5--3~~~----5--3--1~~~-|
G|-5--3~~~----5--3--1~~~----5--3~~~----5--3--1~~~-|
C|-5--3~~~----5--3--1~~~----5--3~~~----5--3--1~~~-|
“Soon I       will fall    like the     wall..”

-Interlude-
Gtr 1- Clean w/Delay
D|-----------------------------------|
A|-----------------------------------|
F|-----------------------------------|
C|-----9--(9)-------------5--(5)-----|
G|---7-----7----7p5-----3-----3----3-|
C|-7----------7-------3----------3---|
Gtr 2- Clean
D|-----------------------------------|
A|-----------------------------------|
F|------------------------5r4~~~~----|
C|-----------------------------------|
G|-----------------------------------|
C|-----------------------------------|
“All around fractured view of life”

Gtr 1
D|-----------------------------------|
A|-----------------------------------|
F|-----------------------------------|
C|-----9--(9)-------------5---5-7----|
G|---7-----7----7p5-----3---3--------|
C|-7----------7-------3------------3-|
“I tear down all these idols...”

Gtr 1
D|------------------------------------|
A|------------------------------------|
F|------------------------------------|
C|-----9/10\9---------------5---5-7---|
G|---7--------7---7p5-----3---3-------|
C|-7------------7-------3-----------3-|
Gtr 2
D|------------------------------------|
A|------------------------------------|
F|----5r4~~~~-------------------------|
C|-------------5h7p3~~~---------------|
G|------------------------------------|
C|------------------------------------|
“And I'll make my transformation”

Gtr 1
D|-------------------------------|
A|-------------------------------|
F|-------------------------------|
C|-----9/10\9---------------5~~~-|
G|---7--------7---7p5-----3~~~~~-|
C|-7------------7-------3~~~~~~~-|
Gtr 2
D|-------------------------------|
A|-------------------------------|
F|-----------------------5r4~~~~-|
C|-------------------------------|
G|-------------------------------|
C|-------------------------------|
“You'll feel better...”

Gtr 1,2- Distortion
D||----------------------------------------------------||
A||o--------------------------------------------------o||
F||----------------------------------------------------||
C||--7-7-7-7-9-9--7-7-7-7-9--7-7-7-7-9-9--7-7-7/9-2-4--||
G||o-7-7-7-7-7-7--7-7-7-7-7--7-7-7-7-7-7--7-7-7/9-2-4-o||
C||--7-7-7-7-7-7--7-7-7-7-7--7-7-7-7-7-7--7-7-7/9-2-4--||
“RIGHT!!!”
(Breathe)                         (Breathe)

D||-----------------------------------------------------------||
A||o---------------------------------------------------------o||
F||--------10~~-----10/12--9---------10~~-----10/12-12/14-14--||
C||-----------------------------------------------------------||
G||o--------8~~------8/10--7----------8~~------8/10-10/12-12-o||
C||--0--0-0------0-0-----------0--0-0------0-0----------------||
“You will...you will.. you will.. YOU!!!”

D||-------------------------------------------------------------||
A||o-----------------------------------------------------------o||
F||------------------10/12--9-------------------10/12-12/14-14--||
C||------------3---2---------------------3---2------------------||
G||o-0-0-0-0-0-3-0-2--8/10--7--0-0-0-0-0-3-0-2---8/10-10/12-12-o||
C||--0-0-0-0-0-3-0-2-----------0-0-0-0-0-3-0-2------------------||
     pm- - - -   -             - - - - -   -
“YOU CAN’T SCAR ME!!!         YOU CAN’T!!!
 YOU CAN’T SCAR ME!!!         YOU CAN’T!!!”


-Solo-
D|-----------------------------------------|
A|-14h15-----------14h15---------14-12-10--|
F|-------19-18~~~--------19-18-------------|
C|-----------------------------------------|
G|-----------------------------------------|
C|-----------------------------------------|

D|--------------------------------------------------------------|
A|--10-12----12------12/15--15-14~~~--14/12---------------------|
F|--------14----14--------------------------14------------------|
C|---------------------------------------------15/14------------|
G|----------------------------------------------------15-14br~--|
C|--------------------------------------------------------------|

-Chorus-
D|------------------------------------------------|
A|------------------------------------------------|
F|-7--5~~~----7--5--3~~~----7--5~~~----7--5--3~~~-|
C|-5--3~~~----5--3--1~~~----5--3~~~----5--3--1~~~-|
G|-5--3~~~----5--3--1~~~----5--3~~~----5--3--1~~~-|
C|-5--3~~~----5--3--1~~~----5--3~~~----5--3--1~~~-|
“Soon I       will fall    like the     wall..”

Gtr 1
D||-----------------------------------|
A||o----------------------------------|
F||-----------------------------------|
C||--5-3----------5-3-1---------------|
G||o-5-3-3-3-3-3--5-3-1-1-1-1-1-1-1-1-|
C||--5-3-3-3-3-3--5-3-1-1-1-1-1-1-1-1-|
                              pm- - -
D|-----------------------------------||
A|----------------------------------o||
F|-----------------------------------||
C|-5-3----------5-3-1----------------||
G|-5-3-3-3-3-3--5-3-1-1-1-1-1-1-1-1-o||
C|-5-3-3-3-3-3--5-3-1-1-1-1-1-1-1-1--||
                            pm- - -
Gtr 2
D|-------------------------------------------------------|
A|-------------------------------------------------------|
F|-12121212-14141414-15151515-17171717-19191919-21212121-|
C|-x-x-x-x--x-x-x-x--x-x-x-x--x-x-x-x--x-x-x-x--x-x-x-x--|
G|-10101010-12121212-13131313-15151515-17171717-19191919-|
C|-------------------------------------------------------|

D||--------------------------------------||
A||o------------------------------------o||
F||-22-22-22-22-22-22-22-22-22-22-22-22--||
C||-x--x--x--x--x--x--x--x--x--x--x--x---||
G||o20-20-20-20-20-20-20-20-20-20-20-20-o||
C||--------------------------------------||

Gtr 1
D||-------------------------------------|
A||o------------------------------------|
F||-------------------------------------|
C||--5-3--------------5-3-1-------------|
G||o-5-3-0-0-0-0-0-0--5-3-1-0-0-0-0-0-0-|
C||--5-3-0-0-0-0-0-0--5-3-1-0-0-0-0-0-0-|
         pm- - - - -        - - - - - -
D|-------------------------------------||-------------------|
A|------------------------------------o||-------------------|
F|-------------------------------------||--7---5~~~~~~------|
C|-5-3--------------5-3-1--------------||--5---3~~~~~~------|
G|-5-3-0-0-0-0-0-0--5-3-1-0-0-0-0-0-0-o||--5---3~~~~~~------|
C|-5-3-0-0-0-0-0-0--5-3-1-0-0-0-0-0-0--||--5---3~~~~~~------|
       pm- - - - -        - - - - - -
Gtr 2
D||--------------------------------------||-------------------|
A||o------------------------------------o||-------------------|
F||-22-22-22-22-22-22-22-22-22-22-22-22--||-22-22---22-22--22-|
C||-x--x--x--x--x--x--x--x--x--x--x--x---||-x--x----x--x---x--|
G||o20-20-20-20-20-20-20-20-20-20-20-20-o||-20-20---20-20--20-|
C||--------------------------------------||-------------------|
“And how the fuck does it feel?
And how the fuck did you figure?”

            
            
Suggest correction
Creating personal tab
Creating personal tab
You can edit any tab online and save it as your Personal.

You can edit, replace or remove any tab part or add personal notes – all changes will be seen only by you.

Personal tabs can be accessed anytime from any device, even offline.
Learn more »
Give kudos to tab author, rate the tab!
1 2 3 4 5
comments
print report bad tab
1 comment total.
0 reply
Miseryfields 103 Nov 05, 2013 09:52 AM

Half of these chords are so wrong. The chorus is supposed to be suspended chords, the break before the first verse and between the subsequent verses and choruses is missing notes, the solo is all kinds of messed up, the final break is also entirely wrong...Yeah, I'm just going to figure it all out by ear and post the correct version. The only thing you didn't get completely wrong is the intro. Whoever gave you 5 stars must never have actually listened to the song before.

guest
You may want to rate the tab now too:
select rating
Wanna post a correction for this tab? Suggest correction