Oops, an error
Loading. Please wait.

Waterhaul tab

version 1
version 1

Whole song

Interactive

1,624 views 6 this week
1 commentread comment
1 2 3 4 5
x 5
add to favorites
×
Save as Personal and add changes to this tab that will be seen only by you. Learn more ›
×
You can save this tab as Personal to edit and correct it or add notes. All changes will be seen only by you. Learn more »
launch autoscroll
font size
0
reset
how to read this tab
guitar tuner
edit
Autoscroll
slow
fast
+/-
esc
set tempo
stop
Author
Tuning: CGCFAD

intro (clean) x4
D-------------------------------------------------------------|
A-------------------------------------------------------------|
F-------------------------------------------------------------|
C------0-0---0-0---0------------------------------------------|
G-------------------------------------------------------------|
C----0-----0-----0--------------------------------------------|


then..
D-------------------------------------------------------------|
A-------------------------------------------------------------|
F-------------------------------------------------------------|
C-------------------------------------------------------------|
G-----8-12---8-12---12---7-10---7-10---10---5-8---5-8---8-----|
C---0------0-------0----0------0------0----0----0-----0-------|

continued..
D-------------------------------------------------------------|
A-------------------------------------------------------------|
F-------------------------------------------------------------|
C-------------------------------------------------------------|
G-----3-7---7h8p7---5-----------------------------------------|
C---0-----0-------0-------------------------------------------|


D-------------------------------------------------------------|
A-------------------------------------------------------------|
F-----------10-10-10----------9-9-9-9---------10--10-10-------|
C--000-000-0-x--x--x--000-000-x-x-x-x--000-000-x-0-x--x-------|
G--000-000-0-8--8--8--000-000-7-7-7-7--000-000-8-0-8--8-------|
C--000-000-0----------000-000----------000-000---0------------|
 pm... ... .          ... ...          ... ...   .

continued..
D-------------------------------------------------------------|
A-------------------------------------------------------------|
F------------14-14-14-15--------------------------------------|
C----000-000--x--x--x--x--------------------------------------|
G----000-000-12-12-12-13--------------------------------------|
C----000-000--------------------------------------------------|
   pm... ...


GUITAR 1
D-----------------------------------------------------|
A-----------------------------------------------------|
F-----------------------------------------------------|
C---3------3------3------3------3------3------3-------|
G---3------3------3------3------3------3------3-------|
C---3------3------3------3------3------3------3-------|
 pm .      .      .      .      .      .      .

GUITAR 2
D--------------------------------------------------------------|
A--------------------------------------------------------------|
F--------------------------------------------------------------|
C--11-11-11-11-11-11-11--13--13--13--9-9-9-9-9-9-9-5-5-5-5-5-5-|
G---X--X--X--X--X--X--X---X---X---X--X-X-X-X-X-X-X-X-X-X-X-X-X-|
C---9--9--9--9--9--9--9--11--11--11--7-7-7-7-7-7-7-3-3-3-3-3-3-|
each note is strummed very fast


Tabbed by: maphia
Submitted by: TheMutts

            
            
Suggest correction
Creating personal tab
Creating personal tab
You can edit any tab online and save it as your Personal.

You can edit, replace or remove any tab part or add personal notes – all changes will be seen only by you.

Personal tabs can be accessed anytime from any device, even offline.
Learn more »
comments
print report bad tab
1 comment total.
0 reply
royturner23 1,507 Nov 16, 2007 07:18 PM

are you sure about this part?

GUITAR
2
D--------------------------------------------------------------|
A--------------------------------------------------
------------|
F--------------------------------------------------------------|
C--11-11-11-11-11-11-11--13--13--13--9-
9-9-9-9-9-9-5-5-5-5-5-5-|
G---X--X--X--X--X--X--X---X---X---X--X-X-X-X-X-X-X-X-X-X-X-X-X-|
C---9--9--9--9--9--9--9--11
--11--11--7-7-7-7-7-7-7-3-3-3-3-3-3-|
each note is strummed very fast

guest
You may want to rate the tab now too:
select rating
Wanna post a correction for this tab? Suggest correction