Oops, an error
Loading. Please wait.

Away From The Sun Tab

version 1
version 1

Intro

Album

Interactive

Video

31,883 views 9 this week
5 commentsread comments
1 2 3 4 5
accurate
x 17
add to favorites
launch autoscroll
font size
0
reset
how to read this tab
guitar tuner
Tab Pro tools
  • play this tab
  • loop segment
  • change instrument
  • show fretboard
  • metronome
Autoscroll
slow
fast
+/-
esc
set tempo
stop
Contributor
Artist:          3 Doors Down
Title :          Away From The Sun
Album :          Away From The Sun
Transcribed by:  Shaun Barnes
Email:           Shaunie914@aol.com


Intro and Verse

e ---------------------------------------------------------------------0----
B ----1-----1-----1----1-----0h1---1-----1-----1-----1----1-----0h1---------
G ------2-----2----------0-------0---------0-----0----------0-------0-------
D --3-----3-----3----2-----2-----------------2-----2----------2-------------
A -------------------------------------3----------------2-------------------
E --------------------------------------------------------------------------

e --------------------------------------------------------------------------
B ----1-----1-----1----1-----0h1---1----3---1---0--------3---1---0----------
G ------2-----2----------0-------0--------0---0---0--------0---0---0--------
D --3-----3-----3----2-----2------------------------0----------------0------
A --------------------------------------------------------------------------
E ------------------------------------3----------------3--------------------


Here is the finger positioning I use to pick this song.  Just listen to the 
song and you'll figure it out.  I don't know the names of some of the chords
but I found that holding these is easiest for me to play the song. 

 
   x03210
C  x32010
   x20010 
   320010
comments
print report bad tab
5 comments total. Showing first comments.
0 reply
plrdsmthdude27 wrote on December 21 2003, 12:00 am

a little off

+1 reply
ultimate_crow wrote on March 14 2004, 12:00 am

This it the real intro
e--------------------------------------------------------------0---
B---1-----1-----1---1-----0h1--------1-----1---1---1-----0---3-----
G-----2-----2---------0-------0-0------0-----0-------0-----0-------
D-3-----3-----3---2-----2------------------------------0-----------
A----------------------------------3-----3-------2-----------------
E------------------------------------------------------------------

e------------------------------------------------------------------
B---1-----1-----1---1-----0h1--------3---1---0------3---1---0---1--
G-----2-----2---------0-------0-0------0---0---0------0---0---0----
D-3-----3-----3---2-----2------------------------------------------
A------------------------------------------------------------------
E---------------------------------3--------------3-----------------
ill post the correct tab soon

0 reply
gomezisastud07 wrote on October 7 2004, 12:00 am

pretty close but yes its off

I want to post or [tab]
guest
You may want to rate the tab now too:
select rating
Please do not post tabs as comments. Select "correction" instead!