Oops, an error
Loading. Please wait.

Away From The Sun Tab

version 3
version 3

Interactive

Video

8,123 views 1 this week
4 commentsread comments
1 2 3 4 5
x 12
add to favorites
launch autoscroll
font size
0
reset
how to read this tab
guitar tuner
Autoscroll
slow
fast
+/-
esc
set tempo
stop
Help us to improve Ultimate-Guitar.com Take our survey!
×
AWAY FROM THE SUN
3 Doors Down

tabbed by Will Fuller (isthatmycow@hotmail.com)

regular tuning

intro/verses/preverse(everything but the chorus & bridge)
|---------------------------------------------------------------0-
|---1-----1-----1---1-----0h1-------1-----1-----1---1-----0h1-3---
|-----2-----2---------0---------0-----0-----0---------0-----------
|-3-----3-----3---2-----2-----2---------2-----2---------0---------
|---------------------------------3---------------2---------------
|-----------------------------------------------------------------

|-----------------------------------------------------------------
|---1-----1-----1---1-----0h1-------3---1---0-------3---1---0---1-
|-----2-----2---------0---------0-----0---0---0---0---0---0---0---
|-3-----3-----3---2-----2-----2-----------------------------------
|-----------------------------------------------------------------
|---------------------------------3~------------3~----------------

Chorus
  F
|-1~--------------------1~------------------1~--------------------1~------------
|-1~--------------------1~------------------1~--------------------1~------------
|-2~--------5-----5-----2~--------0---------2~--------5-----5-----2~------------
|-3~------5-----5-------3~----2-3---0~------3~------5-----5-------3~--------0---
|-3~----3-----2-----3~--3~--------------3---3~----3-----2-----3~--3~----2h3-----
|-1~--------------------1~----------------0-1~--------------------1~----------3~

Bridge (strum)
  Am    G     F     G
|-0-----3-----1-----3~--------8\10-10-10-10/8-8\10-
|-2-----3-----1-----3~--------8\10-10-10-10/8-8\10-
|-3-----0-----2-----0~---
|-3-----0-----3-----0~---
|-0-----2-----3-----2~---
|-x-----3-----1-----3~---

thats about it....the order and words are really easy to figure out, but if you
can't email me and i will send them to you
Suggest correction
comments
print report bad tab
4 comments total. Showing first comments.
0 reply
lilius 10 Oct 11, 2003 12:00 AM

this tab is very useful, thank's................

0 reply
RaZoRb0iz 192 Mar 30, 2004 12:00 AM

Looking at version 2 and 3,they're both wrong and right in certain places.I slowed the speed of my song using windows media player to 80%,and this is the closest i feel.
Intro

F? Am7 C G?
|------------------------------------------------------------------0-
|--1-----1-------1---1-----0h1-------1------1-------1--1-----0-1-3---
|----2------2----------0-------0-0-----0-----0-----------0-----------
|3-----3-------3---2-----2---------------------------------0---------
|-----------------------------------3-----3-------3---2--------------
|--------------------------------------------------------------------

F? Am7 G
-------------------------------------------------------------|
----1-----1-------1---1-------0h1--------3----1-0---3---1-0-1|
------2------2----------0---------0-0------0----------0------|
--3-----3-------3---2-----2----------------------------------|
-------------------------------------------------------------|
---------------------------------------3----------3----------|

Maybe there's some pull-offs or slides..but i'm just putting this hear in terms of which note to play.

0 reply
sa1nt_dave 10 Jun 21, 2005 12:00 AM

yeah i think its a little off but its mainly right, nice work

guest
You may want to rate the tab now too:
select rating
Wanna post a correction for this tab? Suggest correction