Oops, an error
Loading. Please wait.

Back To Me tab

version 1
version 1

Whole song

Interactive

2,891 views 1 this week
no commentswrite comment
1 2 3 4 5
x 3
add to favorites
×
Save as Personal and add changes to this tab that will be seen only by you. Learn more ›
×
You can save this tab as Personal to edit and correct it or add notes. All changes will be seen only by you. Learn more »
launch autoscroll
font size
0
reset
how to read this tab
guitar tuner
edit
Autoscroll
slow
fast
+/-
esc
set tempo
stop
Tabbed by: Kyle Casey
Email: eracman920@gmail.com
Tuning: Standard
Tabbed: Jan. 2012

This is 100% correct I presume.

INTRO:

E-------------------------------------------------------------|
B------1h0----3h0----0h1----1h0-----1h0---3h0-----------------|
G-----2------0------0------0-------2-------------0h2----2h0---|
D----2------0------2------2-------2------2------3------3------|
A---0-------------3------3-------0------2------3------3-------|
E----------3---------------------------0------1------1--------|


VERSE:
E----------------------------------------------------------------------|
B----------1h0-----3h0----0h1----1h0------1h0-----3h0------------------|
G---------2-------0------0------0--------2----------------0h2----2h0---|
D--------2-------0------2------2--------2--------2-------3------3------|
A-------0--------------3------3--------0--------2-------3------3-------|
E---------------3------------------------------0-------1------1--------|
 I have poured out my heart            Laid it right here for you


E-------------------------------0-------0----------3---------|
B--------1h0---3h0----0h1----1-----1------1-----3---3--------|
G-------2-----0------0------0-------0------0-----0---0-------|
D------2-----0------2------2---------------------------------|
A-----0------------3------3----------------------------------|
E-----------3---------------------------------3--------------|
 I've tried so hard             That's the best that I can do


E---------------------------------------------------------|
B------1h0----3h0-----0h1---------------------------------|
G-----2------0-------0--------0h2----0h2----0h2----0h2----|
D----2------0-------2--------3------3------3------3-------|
A---0--------------3--------3------3------3------3--------|
E----------3---------------1------1------1------1---------|
 Please understand I am not who I was


CHORUS:
E-----------------------------------------|
B-----------------------------------------|
G----5-5-5-5-5-5--------------------------|
D----5-5-5-5-5-5-----------5-5-5-5-5-5----|
A----3-3-3-3-3-3-----------5-5-5-5-5-5----|
E--------------------------3-3-3-3-3-3----|
 You used to be all that I had    


E-----------------------------------------|
B-----------------------------------------|
G--2-2-2-2--------------------------------|
D--2-2-2-2-----5-5-5-5----3-3-3-3-3-3-----|
A--0-0-0-0-----5-5-5-5----3-3-3-3-3-3-----|
E--------------3-3-3-3----1-1-1-1-1-1-----|
 Now your just not what I need       


E-----------------------------------------|
B-----------------------------------------|
G-5-5-5-5-5-5-----------------------------|
D-5-5-5-5-5-5----------5-5-5-5-5-5--------|
A-3-3-3-3-3-3----------5-5-5-5-5-5--------|
E----------------------3-3-3-3-3-3--------|
  I've got to get over you and I know


E----------------------------------------|
B----------------------------------------|
G-2-2-2-2----------------5---------------|
D-2-2-2-2----5-5-5-5-----5---------------|
A-0-0-0-0----5-5-5-5-----3---------------|
E------------3-3-3-3---------------------|
  Then I can get back to me 

VERSE:
E--------------------------------------------------------------|
B----1h0---3h0----0h1----1h0------1h0---3h0--------------------|
G---2-----0------0------0--------2-----0--------0h2------2h0---|
D--2-----0------2------2--------2-----0--------3--------3------|
A-0------------3------3--------0--------------3--------3-------|
E-------3----------------------------3-------1--------1--------|
  Tears forget                 That's more than I can do


E---------------------------0------0-----------3------------|
B----1h0---3h0----0h1----1-----1-----1------3----3----------|
G---2-----0------0------0-------0-----0------0----0---------|
D--2-----0------2------2------------------------------------|
A-0------------3------3-------------------------------------|
E-------3----------------------------------3----------------|
  They don't wash away      All the things we've been through


E-------------------------------------------------------|
B----1h0----3h0-----0h1---------------------------------|
G---2------0-------0--------0h2----0h2----0h2----0h2----|
D--2------0-------2--------3------3------3------3-------|
A-0--------------3--------3------3------3------3--------|
E--------3---------------1------1------1------1---------|
  I've put behind me my share of the shame

E-------------------------------------------------------|
B----1h0----3h0-----0h1---------------------------------|
G---2------0-------0--------0h2----0h2----0h2----0h2----|
D--2------0-------2--------3------3------3------3-------|
A-0--------------3--------3------3------3------3--------|
E--------3---------------1------1------1------1---------|
  We could call villains but it's all in vain


CHORUS:
E-----------------------------------------|
B-----------------------------------------|
G----5-5-5-5-5-5--------------------------|
D----5-5-5-5-5-5-----------5-5-5-5-5-5----|
A----3-3-3-3-3-3-----------5-5-5-5-5-5----|
E--------------------------3-3-3-3-3-3----|
 You used to be all that I had    


E-----------------------------------------|
B-----------------------------------------|
G--2-2-2-2--------------------------------|
D--2-2-2-2-----5-5-5-5----3-3-3-3-3-3-----|
A--0-0-0-0-----5-5-5-5----3-3-3-3-3-3-----|
E--------------3-3-3-3----1-1-1-1-1-1-----|
 Now your just not what I need       


E-----------------------------------------|
B-----------------------------------------|
G-5-5-5-5-5-5-----------------------------|
D-5-5-5-5-5-5----------5-5-5-5-5-5--------|
A-3-3-3-3-3-3----------5-5-5-5-5-5--------|
E----------------------3-3-3-3-3-3--------|
  I've got to get over you and I know


E----------------------------------------|
B----------------------------------------|
G-2-2-2-2----------------5---------------|
D-2-2-2-2----5-5-5-5-----5---------------|
A-0-0-0-0----5-5-5-5-----3---------------|
E------------3-3-3-3---------------------|
  Then I can get back to me 


E----1----0------------------------------------------------|
B---1-1-------1---------1---0---------------3--1-0h1h0-----|
G--2---2-------0-------0--------0----------0-0--------0----|
D-3-----3---3---------2-------------------0---0-0----------|
A--------------------3----3---3----------------------------|
E----------------------------------------3-----------------|
  All of my life I've waited, hoping     Wanting


E--------------------------------|
B----3--1-0h1h0------------------|
G---0-0--------0-----------------|
D--0---0-0-----------------------|
A--------------------------------|
E-3------------------------------|
  You to see me the way that I am


E----1----0------------------------------------------------|
B---1-1-------1---------1---0---------------3--1-0h1h0-----|
G--2---2-------0-------0--------0----------0----------0----|
D-3-----3---3---------2-------------------0---0-0----------|
A--------------------3----3---3----------------------------|
E----------------------------------------3-----------------|
  But now I know          I'm not alone


E--------------------------------|
B----3--1-0h1h0------------------|
G---0-0--------0-----------------|
D--0---0-0-----------------------|
A--------------------------------|
E-3------------------------------|
  Someone understands


SOLO:

Guitar 1
E--------------------------------------------------------------------------|
B-/13--12--13--12--15--13-12--------------12--13---------------10-12-------|
G---------------------------12------/14----------10------10-12-------------|
D--------------------------------------------------------------------------|
A--------------------------------------------------------------------------|
E--------------------------------------------------------------------------|

E-------------------------------------------------/13------12--------------|
B-/13--12--13--12--15--13--15--13----------12--13-------------15-13-12-----|
G----------------------------------12-14-------------------------------12--|
D--------------------------------------------------------------------------|
A--------------------------------------------------------------------------|
E--------------------------------------------------------------------------|


Guitar 2
E-----------------------------------------|
B-----------------------------------------|
G----5-5-5-5-5-5--------------------------|
D----5-5-5-5-5-5-----------5-5-5-5-5-5----|
A----3-3-3-3-3-3-----------5-5-5-5-5-5----|
E--------------------------3-3-3-3-3-3----|

E-----------------------------------------|
B-----------------------------------------|
G--2-2-2-2--------------------------------|
D--2-2-2-2-----5-5-5-5----3-3-3-3-3-3-----|
A--0-0-0-0-----5-5-5-5----3-3-3-3-3-3-----|
E--------------3-3-3-3----1-1-1-1-1-1-----|

E-----------------------------------------|
B-----------------------------------------|
G----5-5-5-5-5-5--------------------------|
D----5-5-5-5-5-5-----------5-5-5-5-5-5----|
A----3-3-3-3-3-3-----------5-5-5-5-5-5----|
E--------------------------3-3-3-3-3-3----|

E----------------------------------------------------|
B----------------------------------------------------|
G--2-2-2-2-------------------------------------------|
D--2-2-2-2-----5-5-5-5----3-3-3-3-3-3-3-3-3-3-3-3----|
A--0-0-0-0-----5-5-5-5----3-3-3-3-3-3-3-3-3-3-3-3----|
E--------------3-3-3-3----1-1-1-1-1-1-1-1-1-1-1-1----|


CHORUS:
E------------------------------------------|
B------------------------------------------|
G-5-5-5-5-5-5------------------------------|
D-5-5-5-5-5-5---------------5-5-5-5-5-5----|
A-3-3-3-3-3-3---------------5-5-5-5-5-5----|
E---------------------------3-3-3-3-3-3----|
  You used to be all that I had


E----------------------------------------|
B----------------------------------------|
G-2-2-2-2--------------------------------|
D-2-2-2-2-----5-5-5-5----3-3-3-3-3-3-----|
A-0-0-0-0-----5-5-5-5----3-3-3-3-3-3-----|
E-------------3-3-3-3----1-1-1-1-1-1-----|
  Now your just not what I need


E-----------------------------------------|
B-----------------------------------------|
G-5-5-5-5-5-5-----------------------------|
D-5-5-5-5-5-5----------5-5-5-5-5-5--------|
A-3-3-3-3-3-3----------5-5-5-5-5-5--------|
E----------------------3-3-3-3-3-3--------|
  I've got to get over you and I know

E---------------------------------------------------------|
B---------------------------------------------------------|
G-2-2-2-2----------------5-5-5-5-5-5-5-5-5-5-5-5----------|
D-2-2-2-2----5-5-5-5-----5-5-5-5-5-5-5-5-5-5-5-5----------|
A-0-0-0-0----5-5-5-5-----3-3-3-3-3-3-3-3-3-3-3-3----------|
E------------3-3-3-3--------------------------------------|
  Then I can get back to me        You've got to know that


E------------------------------------------|
B------------------------------------------|
G-5-5-5-5-5-5------------------------------|
D-5-5-5-5-5-5---------------5-5-5-5-5-5----|
A-3-3-3-3-3-3---------------5-5-5-5-5-5----|
E---------------------------3-3-3-3-3-3----|
  You used to be all that I had


E----------------------------------------|
B----------------------------------------|
G-2-2-2-2--------------------------------|
D-2-2-2-2-----5-5-5-5----3-3-3-3-3-3-----|
A-0-0-0-0-----5-5-5-5----3-3-3-3-3-3-----|
E-------------3-3-3-3----1-1-1-1-1-1-----|
  Now your just not what I need


E-----------------------------------------|
B-----------------------------------------|
G-5-5-5-5-5-5-----------------------------|
D-5-5-5-5-5-5----------5-5-5-5-5-5--------|
A-3-3-3-3-3-3----------5-5-5-5-5-5--------|
E----------------------3-3-3-3-3-3--------|
  I've got to get over you and I know


E----------------------------------------|
B----------------------------------------|
G-2-2-2-2--------------------------------|
D-2-2-2-2-----5-5-5-5----3-3-3-3-3-3-----|
A-0-0-0-0-----5-5-5-5----3-3-3-3-3-3-----|
E-------------3-3-3-3----1-1-1-1-1-1-----|
  Then I can get back to me


E----------------------------------------|
B----------------------------------------|
G-2-2-2-2--------------------------------|
D-2-2-2-2-----5-5-5-5----3-3-3-3-3-3-----|
A-0-0-0-0-----5-5-5-5----3-3-3-3-3-3-----|
E-------------3-3-3-3----1-1-1-1-1-1-----|
  Then I can get back to me


E----------------------------------------|
B----------------------------------------|
G-2-2-2-2----------------5---------------|
D-2-2-2-2----5-5-5-5-----5---------------|
A-0-0-0-0----5-5-5-5-----3---------------|
E------------3-3-3-3-----3---------------|
  Then I can get back to me 


ENJOY! AND THANKS!

If you see anything that I should add, liet me know via email.


Keys:
/ = slide
h = hammer-on

            
            
Suggest correction
Creating personal tab
Creating personal tab
You can edit any tab online and save it as your Personal.

You can edit, replace or remove any tab part or add personal notes – all changes will be seen only by you.

Personal tabs can be accessed anytime from any device, even offline.
Learn more »
Give kudos to tab author, rate the tab!
1 2 3 4 5
comments
print report bad tab
guest
You may want to rate the tab now too:
select rating
Wanna post a correction for this tab? Suggest correction