Oops, an error
Loading. Please wait.

Be Like That Tab

version 1
version 1
70,418 views 9 this week
21 commentsread comments
1 2 3 4 5
accurate
x 40
add to favorites
launch autoscroll
font size
0
reset
how to read this tab
guitar tuner
Autoscroll
slow
fast
+/-
esc
set tempo
stop
Help us to improve Ultimate-Guitar.com Take our survey!
×
Author
e:--------3------------------0----------------0-----
B:----------3-----------3------3------------3---3---
G:----0--------0-----------2-----2--------0-------0-
D:------0---------0--0-------------0----2-----------
A:--------------------------------------------------
E:--3---------------------------------0-------------

e:--------------0--------
B:-----------3-----3-----      Now if you think that's a bad
G:--------0-----------0--      tab,  you must be screwed up
D:-----2-----------------      in the head!
A:--3--------------------
E:-----------------------

Any advice?
Suggest correction
comments
print report bad tab
21 comments total. Showing first comments.
0 reply
charliesteele 0 wrote on January 23 2002, 12:00 am

agree with you totally....that is the right way to play the intro...
guvbug

-1 reply
thephenom_kid 0 wrote on January 23 2002, 12:00 am

---------0--------
-------3----3------
---------------0--
-----0-----------
---2-------------
-0---------------

try that one thats the real way

0 reply
iNVurName 10 wrote on January 24 2002, 12:00 am

good tab man, really good!!!

guest
You may want to rate the tab now too:
select rating
Please do not post tabs as comments. Select "correction" instead!