Oops, an error
Loading. Please wait.

Be Like That Tab

version 4
version 4
3,899 views 3 this week
2 commentsread comments
1 2 3 4 5
worth learning
x 9
add to favorites
launch autoscroll
font size
0
reset
how to read this tab
guitar tuner
Tab Pro tools
  • play this tab
  • loop segment
  • change instrument
  • show fretboard
  • metronome
Autoscroll
slow
fast
+/-
esc
set tempo
stop
3 Doors Down, Be Like That.
 Tabbed by Chris Dogg31@AOL.com.
  
Artist:  3 Doors Down
Song:  Be Like That
Email:  Chris Dogg31@AOL.com

into/verse
E------------3-------------0--------------------0-----
B--------------3-------3-------3--------------3----3--
G---0-----------0--------2--------2------------------0
D-----0-----------0--0---------------0-----2----------
A----------------------------------------2------------
E-3------------------------------------0--------------

E-----------------0-------
B--------------3-----3----
G----------0------------0-
D-------2-----------------
A----3--------------------
E-------------------------

this intro goes into the verse then guitar 2 (distorted) does the following:

E-----------------------------------------------------
B-----------------------------------------------------
G----------7-------------9-------------5--------------
D---5------7-------------9-------------5--------------
A---5------5-------------7-------------3--------------
E---3-------------------------------------------------

chorus

E-----------------------------------------------------B-----------------------------------------------------G-----------------7xxx7xxx7xxx9xxx9xxx9xxx5xxx5xxx5---
D-----5xxx5xxx5xxx7xxx7xxx7xxx9xxx9xxx9xxx5xxx5xxx5---
A-----5xxx5xxx5xxx5xxx5xxx5xxx7xxx7xxx7xxx3xxx3xxx3---
E-----3xxx3xxx3xxx-xxx-xxx-xxx-xxx-xxx-xxx-xxx-xxx----

chorus 2
E-----------------------------------------------------
B-----------------------------------------------------
G--------------5xxx5xxx5-----------7xxx7xxx7----------
D-7xxx7xxx7xxx-5xxx5xxx5-5xxx5xxx5-7xxx7xxx7----------
A-7xxx7xxx7xxx-3xxx3xxx3-5xxx5xxx5-5xxx5xxx5----------
E-5xxx5xxx5xxx-----------3xxx3xxx3--------------------

This is the basic song so email if it needs some changes, I didn't put the lyrics up cause you can get them anywhere   
 
:: Ultimate Guitar Archive :: 
http://www.ultimate-guitar.com 

 
comments
print report bad tab
2 comments total.
0 reply
alfpe26 wrote on February 28 2002, 12:00 am

intro's awesome. sounds just like 3 doors down themeselves

0 reply
Broken Sound wrote on July 19 2003, 12:00 am

thank god som1 got it right great job man

I want to post or [tab]
guest
You may want to rate the tab now too:
select rating
Please do not post tabs as comments. Select "correction" instead!