Oops, an error
Loading. Please wait.

Believer Tab

version 1
version 1

Whole song

Interactive

12,184 views 15 this week
3 commentsread comments
1 2 3 4 5
excellent!
x 5
add to favorites
launch autoscroll
font size
0
reset
how to read this tab
guitar tuner
Autoscroll
slow
fast
+/-
esc
set tempo
stop
Help us to improve Ultimate-Guitar.com Take our survey!
×
Author
Difficulty
intermediate
3 Doors Down - Believer
Album - Time Of My Life

Tuning - Standard Tuning EADGBe

This is what I figured out from listening to the album, it's my first official tab here! 
I just can't solo, so that isn't here.. Enjoy!

Check me on youtube where I play the song!
http://www.youtube.com/watch?v=J4tc7nyaN5Q


INTRO
e------------------------------------------------------------|
B------------------------------------------------------------|
G------------------------------------------------------------|
D------------------------------------------------------------|
A-------7-5-----8~7-5---7-5---5---5-7-8-7-5-----5-----5------|
E-5-7-8-----8-7-------8-----8---8-----------8-7---8-7---8-7--|

VERSE
e------------------------------------------------------------|
B----------6~6666666-----------------------------------------|
G-22222222-5~5555555-5555555\5~555555------------------------|
D-22222222-3~3333333-5555555\5~555555------------------------|
A-00000000-----------3333333\2~222223------------------------|
E------------------------------------------------------------|
  MMMMMMMM    MMMMMM MMMMMMM    MMMM

PRE-CHORUS
e------------------------------------------------------------|
B-------------------(1st-time)-------(second-time)-----------|
G-------------------2-22222222222222-9-9999999\3-------------|
D-3-3-333/5-5555555-2-22222222222222-9-9999999\3->slide down-|
A-3-3-333/5-5555555-0-00000000000000-7-7777777\1-------------|
E-1-1-111/3-3333333------------------------------------------|
 |___2x____________|

CHORUS
e------------------------------------------------------------|
B-------66666666---------------------------------------------|
G-22222-55555555-55555-77777777------------------------------|
D-22222-33333333-55555-77777777------------------------------|
A-00000----------33333-55555555------------------------------|
E------------------------------------------------------------|

BREAK
e------------------------------------------------------------|
B------------------------------------------------------------|
G------------------------------------------------------------|
D------------------------------------------------------------|
A-2-2-0------4-4-4-------------------------------------------|
E-0-----3-2~-2-2-2-2-3-2-------------------------------------|
               M M


INTRO		2X
VERSE		2x
PRE-CHORUS	2X
CHORUS		4X
INTRO		2X
VERSE		2X
PRE-CHORUS	2X
CHORUS		4X
BREAK		4X

SOLO (during solo play CHORUS 2x muted, 2x NOT muted)

CHORUS		4X
INTRO		2X



Tabbed by Bob Kuipers kuipers_bob@hotmail.com
Suggest correction
comments
print report bad tab
3 comments total.
0 reply
bensamples 30 wrote on October 12 2011, 03:58 pm

Sounds perfect.

0 reply
3_doors_down 10 wrote on October 14 2011, 06:11 pm

perfect tab....

only wish for the solo..xD
hope it comes someday

+2 reply
xander_c212 10 wrote on December 28 2011, 03:26 am

actually sth more like
A--------7--------8~-7-5-----7-5----------5-7-8-7-5----5-----5
E-5-7-8----8-7-5---------8-------8-7~-8------------8-7---8-7--

A-------------------------------------------------------------
E-8-7---------------------------------------------------------

guest
You may want to rate the tab now too:
select rating
Please do not post tabs as comments. Select "correction" instead!