Oops, an error
Loading. Please wait.

Better Life Bass Tab

version 2
version 2

Whole song

Interactive

453 views 1 this week
no commentswrite comment
1 2 3 4 5
3 more votes to show rating
add to favorites
launch autoscroll
font size
0
reset
guitar tuner
Autoscroll
slow
fast
+/-
esc
set tempo
stop
Help us to improve Ultimate-Guitar.com Take our survey!
×
Author
Difficulty
intermediate
SONG: BETTER LIFE
BAND: 3 DOORS DOWN
TABBED BY: CURADO61
EMAIL: CURADO61@YAHOO.COM
TUNING: STANDARD-EADG
  
G|--guitar intro-|--------------------------------|------------------------|
D|----first 4----|--------------------------------|---rest 4 measures------|
A|----measures---|-7------------------------------|------------------------|
E|---------------|---2-02--0-2-02--5-2-02--0-2-02-|------------------------|

G|-----|------------------------------------------------|
D|-----|---------7h----------------------7h------0------|
A|-12~~|7-9999-7----7-9999-7----7-9999-7----7-999-7-9h--| 3 times
E|-----|---------------------7h-------------------------|

G|-------------------------------------------------------------------------|
D|-------------------------------------------------------------------------|
A|-9h-10h-12h-10h-9-10-----------------------------------------------------|
E|--------------------0-5-5h--77-7777--2h-3h-5h-3h-2-3-0-5-5h--77-777h-----|

G|-----------------------------------------------------|
D|----------7h-----------------------7h----------0-----|
A|-7-9999-7----7-9999-7-----7-9999-7----7-9999-7--7-9--| 4 times
E|----------------------7h-----------------------------|

G|-------------------------------------------------------------------------|
D|-------------------------------------------------------------------------|
A|-9h-10h-12h-10h-9-10-----------------------------------------------------|
E|---------------------0-5-5h--77-7777--2h-3h-5h-3h-2-3-0-5-5h--77-777h----|

G|-----------------------------------------------------|
D|----------5h------------------------5h---------------|
A|-5-7777-5-----5-7777-5-----5-7777-5-----5-777-0-5-7--| 2 times
E|-----------------------5h----------------------------|

G|---------------------------7h-5-4----------------------------7h-5-4------|
D|-------------------------------------------------------------------------|
A|-------------------------------------------------------------------------|
E|-0h-2h-3h-5h-7-8--0h-2h-3h---------0h-2h-3h-5h-7-8--0h-2h-3h-------------|

G|---------------------------7h-5-4----------------------------------------|
D|-------------------------------------------------------------------------|
A|----------------------------------------------------------------7hhhhhhh-|
E|-0h-2h-3h-5h-7-8--0h-2h-3h---------0h-2h-3h-5h-7-8--0h-2h-3h-------------|

G|------------------------------------------------------|
D|----------5h------------------------5h----------------|
A|7~5-7777-5-----5-7777-5-----5-7777-5-----5-777-0-5-7--|
E|-----------------------5h-----------------------------|

G|------------------------------------------------------|
D|----------7h------------------------7h--------0-------|
A|-7-9999-7-----7-9999-7-----7-9999-7-----7-999---7-9---|
E|-----------------------7h-----------------------------|

G|-------------------------------------------------------------------------|
D|-------------------------------------------------------------------------|
A|-9h-10h-12h-10h-9-10-----------------------------------------------------|
E|---------------------0-5-5h-77-7777--2h-3h-5h-3h-2-3-0-5-5h-77-777h------|

G|-------------------------------------------------------------------------|
D|-------------------------------------------------------------------------|
A|-------------------------------------------------------------------------|
E|-2h-3h-5h-3h-2-3-0-5-5h-77-7777---2h-3h-5h-3h-2-3-0-5-5h-77-7777h--------|

G|-------------------------------------------------------------------------|
D|-------------------------------------------------------------------------|
A|---------------------------------7---------------------------------------|
E|-0-2-02--0-2-02--5-2-02--0-2-02----2-02--0-2-02--5-2-02--0-2-02----------|
Suggest correction
Give kudos to tab author, rate the tab!
1 2 3 4 5
comments
print report bad tab
guest
You may want to rate the tab now too:
select rating
Wanna post a correction for this tab? Suggest correction